  0
SECTION
  2
BLOCKS
  0
ENDSEC
  0
SECTION
  2
ENTITIES
  0
LINE
  8
0
 10
-73.7202
 20
-73.6892
 11
-73.4887
 21
-75.9336
  0
LINE
  8
0
 10
-73.4887
 20
-75.9336
 11
-73.1559
 21
-79.1617
  0
LINE
  8
0
 10
-73.1559
 20
-79.1617
 11
-73.0979
 21
-79.2094
  0
LINE
  8
0
 10
-73.0979
 20
-79.2094
 11
-73.0785
 21
-79.2253
  0
LINE
  8
0
 10
-73.0785
 20
-79.2253
 11
-73.0785
 21
-79.2253
  0
LINE
  8
0
 10
-73.0785
 20
-79.2253
 11
-63.7044
 21
-86.9237
  0
LINE
  8
0
 10
-63.7044
 20
-86.9237
 11
-59.7103
 21
-90.2038
  0
LINE
  8
0
 10
-59.7103
 20
-90.2038
 11
-59.6856
 21
-90.2241
  0
LINE
  8
0
 10
-59.6856
 20
-90.2241
 11
-57.9985
 21
-91.0479
  0
LINE
  8
0
 10
-57.9985
 20
-91.0479
 11
-54.8055
 21
-91.3987
  0
LINE
  8
0
 10
-54.8055
 20
-91.3987
 11
-41.4608
 21
-103.198
  0
LINE
  8
0
 10
-41.4608
 20
-103.198
 11
-39.6901
 21
-103.189
  0
LINE
  8
0
 10
-39.6901
 20
-103.189
 11
-34.153
 21
-103.163
  0
LINE
  8
0
 10
-34.153
 20
-103.163
 11
-34.0876
 21
-103.121
  0
LINE
  8
0
 10
-34.0876
 20
-103.121
 11
-34.0452
 21
-103.094
  0
LINE
  8
0
 10
-34.0452
 20
-103.094
 11
-34.0452
 21
-103.094
  0
LINE
  8
0
 10
-34.0452
 20
-103.094
 11
-30.3169
 21
-100.704
  0
LINE
  8
0
 10
-30.3169
 20
-100.704
 11
-26.1923
 21
-98.0603
  0
LINE
  8
0
 10
-26.1923
 20
-98.0603
 11
-24.247
 21
-96.1065
  0
LINE
  8
0
 10
-24.247
 20
-96.1065
 11
-21.7809
 21
-93.6298
  0
LINE
  8
0
 10
-21.7809
 20
-93.6298
 11
-21.1617
 21
-92.7775
  0
LINE
  8
0
 10
-21.1617
 20
-92.7775
 11
-19.3985
 21
-90.3507
  0
LINE
  8
0
 10
-19.3985
 20
-90.3507
 11
-20.3871
 21
-86.5039
  0
LINE
  8
0
 10
-20.3871
 20
-86.5039
 11
-20.6661
 21
-85.4182
  0
LINE
  8
0
 10
-20.6661
 20
-85.4182
 11
-20.6661
 21
-85.4182
  0
LINE
  8
0
 10
-20.6661
 20
-85.4182
 11
-16.3821
 21
-80.6603
  0
LINE
  8
0
 10
-16.3821
 20
-80.6603
 11
-11.466
 21
-75.2005
  0
LINE
  8
0
 10
-11.466
 20
-75.2005
 11
-8.78252
 21
-73.4101
  0
LINE
  8
0
 10
-8.78252
 20
-73.4101
 11
0.579808
 21
-67.164
  0
LINE
  8
0
 10
0.579808
 20
-67.164
 11
4.99922
 21
-66.2384
  0
LINE
  8
0
 10
4.99922
 20
-66.2384
 11
13.5922
 21
-64.4386
  0
LINE
  8
0
 10
13.5922
 20
-64.4386
 11
17.8979
 21
-64.4386
  0
LINE
  8
0
 10
17.8979
 20
-64.4386
 11
17.9731
 21
-64.7679
  0
LINE
  8
0
 10
17.9731
 20
-64.7679
 11
17.9808
 21
-64.8018
  0
LINE
  8
0
 10
17.9808
 20
-64.8018
 11
18.0026
 21
-64.8291
  0
LINE
  8
0
 10
18.0026
 20
-64.8291
 11
19.161
 21
-66.2817
  0
LINE
  8
0
 10
19.161
 20
-66.2817
 11
20.8349
 21
-67.0878
  0
LINE
  8
0
 10
20.8349
 20
-67.0878
 11
20.8663
 21
-67.1029
  0
LINE
  8
0
 10
20.8663
 20
-67.1029
 11
22.759
 21
-67.1029
  0
LINE
  8
0
 10
22.759
 20
-67.1029
 11
22.7904
 21
-67.0878
  0
LINE
  8
0
 10
22.7904
 20
-67.0878
 11
24.4644
 21
-66.2817
  0
LINE
  8
0
 10
24.4644
 20
-66.2817
 11
25.6228
 21
-64.8291
  0
LINE
  8
0
 10
25.6228
 20
-64.8291
 11
25.6445
 21
-64.8018
  0
LINE
  8
0
 10
25.6445
 20
-64.8018
 11
25.6523
 21
-64.7679
  0
LINE
  8
0
 10
25.6523
 20
-64.7679
 11
25.7274
 21
-64.4386
  0
LINE
  8
0
 10
25.7274
 20
-64.4386
 11
34.0762
 21
-64.4386
  0
LINE
  8
0
 10
34.0762
 20
-64.4386
 11
38.4969
 21
-57.7181
  0
LINE
  8
0
 10
38.4969
 20
-57.7181
 11
41.283
 21
-53.4828
  0
LINE
  8
0
 10
41.283
 20
-53.4828
 11
44.9281
 21
-53.4828
  0
LINE
  8
0
 10
44.9281
 20
-53.4828
 11
51.5058
 21
-53.4828
  0
LINE
  8
0
 10
51.5058
 20
-53.4828
 11
54.3719
 21
-53.4828
  0
LINE
  8
0
 10
54.3719
 20
-53.4828
 11
73.5211
 21
-53.4828
  0
LINE
  8
0
 10
73.5211
 20
-53.4828
 11
78.4574
 21
-48.7147
  0
LINE
  8
0
 10
78.4574
 20
-48.7147
 11
80.5211
 21
-46.7213
  0
LINE
  8
0
 10
80.5211
 20
-46.7213
 11
80.5211
 21
-46.6531
  0
LINE
  8
0
 10
80.5211
 20
-46.6531
 11
80.5211
 21
-46.6531
  0
LINE
  8
0
 10
80.5211
 20
-46.6531
 11
80.5211
 21
-30.9621
  0
LINE
  8
0
 10
80.5211
 20
-30.9621
 11
80.5211
 21
6.96211
  0
LINE
  8
0
 10
80.5211
 20
6.96211
 11
80.5211
 21
10.8082
  0
LINE
  8
0
 10
80.5211
 20
10.8082
 11
81.1728
 21
11.122
  0
LINE
  8
0
 10
81.1728
 20
11.122
 11
82.3312
 21
12.5746
  0
LINE
  8
0
 10
82.3312
 20
12.5746
 11
82.353
 21
12.6018
  0
LINE
  8
0
 10
82.353
 20
12.6018
 11
82.3607
 21
12.6358
  0
LINE
  8
0
 10
82.3607
 20
12.6358
 11
82.7741
 21
14.4471
  0
LINE
  8
0
 10
82.7741
 20
14.4471
 11
82.3607
 21
16.2585
  0
LINE
  8
0
 10
82.3607
 20
16.2585
 11
82.353
 21
16.2925
  0
LINE
  8
0
 10
82.353
 20
16.2925
 11
82.3312
 21
16.3197
  0
LINE
  8
0
 10
82.3312
 20
16.3197
 11
81.1728
 21
17.7723
  0
LINE
  8
0
 10
81.1728
 20
17.7723
 11
80.5211
 21
18.0861
  0
LINE
  8
0
 10
80.5211
 20
18.0861
 11
80.5211
 21
22.6531
  0
LINE
  8
0
 10
80.5211
 20
22.6531
 11
80.5211
 21
25.1989
  0
LINE
  8
0
 10
80.5211
 20
25.1989
 11
80.5211
 21
25.2783
  0
LINE
  8
0
 10
80.5211
 20
25.2783
 11
80.5211
 21
31.3452
  0
LINE
  8
0
 10
80.5211
 20
31.3452
 11
80.5211
 21
37.864
  0
LINE
  8
0
 10
80.5211
 20
37.864
 11
80.5211
 21
46.3434
  0
LINE
  8
0
 10
80.5211
 20
46.3434
 11
80.5211
 21
46.3434
  0
LINE
  8
0
 10
80.5211
 20
46.3434
 11
80.5211
 21
46.3764
  0
LINE
  8
0
 10
80.5211
 20
46.3764
 11
78.1707
 21
48.4119
  0
LINE
  8
0
 10
78.1707
 20
48.4119
 11
73.5211
 21
52.4386
  0
LINE
  8
0
 10
73.5211
 20
52.4386
 11
53.8219
 21
52.4386
  0
LINE
  8
0
 10
53.8219
 20
52.4386
 11
52.6929
 21
52.4386
  0
LINE
  8
0
 10
52.6929
 20
52.4386
 11
41.2175
 21
52.4386
  0
LINE
  8
0
 10
41.2175
 20
52.4386
 11
35.525
 21
52.4386
  0
LINE
  8
0
 10
35.525
 20
52.4386
 11
33.6754
 21
56.9721
  0
LINE
  8
0
 10
33.6754
 20
56.9721
 11
30.6293
 21
64.4386
  0
LINE
  8
0
 10
30.6293
 20
64.4386
 11
25.7274
 21
64.4386
  0
LINE
  8
0
 10
25.7274
 20
64.4386
 11
25.6523
 21
64.7679
  0
LINE
  8
0
 10
25.6523
 20
64.7679
 11
25.6445
 21
64.8018
  0
LINE
  8
0
 10
25.6445
 20
64.8018
 11
25.6228
 21
64.8291
  0
LINE
  8
0
 10
25.6228
 20
64.8291
 11
24.4644
 21
66.2817
  0
LINE
  8
0
 10
24.4644
 20
66.2817
 11
22.7904
 21
67.0878
  0
LINE
  8
0
 10
22.7904
 20
67.0878
 11
22.759
 21
67.1029
  0
LINE
  8
0
 10
22.759
 20
67.1029
 11
20.8663
 21
67.1029
  0
LINE
  8
0
 10
20.8663
 20
67.1029
 11
20.8349
 21
67.0878
  0
LINE
  8
0
 10
20.8349
 20
67.0878
 11
19.161
 21
66.2817
  0
LINE
  8
0
 10
19.161
 20
66.2817
 11
18.0026
 21
64.8291
  0
LINE
  8
0
 10
18.0026
 20
64.8291
 11
17.9808
 21
64.8018
  0
LINE
  8
0
 10
17.9808
 20
64.8018
 11
17.9731
 21
64.7679
  0
LINE
  8
0
 10
17.9731
 20
64.7679
 11
17.8979
 21
64.4386
  0
LINE
  8
0
 10
17.8979
 20
64.4386
 11
13.5922
 21
64.4386
  0
LINE
  8
0
 10
13.5922
 20
64.4386
 11
10.5885
 21
66.3008
  0
LINE
  8
0
 10
10.5885
 20
66.3008
 11
9.04363
 21
67.2586
  0
LINE
  8
0
 10
9.04363
 20
67.2586
 11
-1.2688
 21
67.2586
  0
LINE
  8
0
 10
-1.2688
 20
67.2586
 11
-1.31251
 21
67.2586
  0
LINE
  8
0
 10
-1.31251
 20
67.2586
 11
-7.76348
 21
67.2586
  0
LINE
  8
0
 10
-7.76348
 20
67.2586
 11
-8.36293
 21
66.4681
  0
LINE
  8
0
 10
-8.36293
 20
66.4681
 11
-9.90213
 21
64.4386
  0
LINE
  8
0
 10
-9.90213
 20
64.4386
 11
-21.5714
 21
64.4386
  0
LINE
  8
0
 10
-21.5714
 20
64.4386
 11
-21.6021
 21
64.4386
  0
LINE
  8
0
 10
-21.6021
 20
64.4386
 11
-26.1362
 21
64.4386
  0
LINE
  8
0
 10
-26.1362
 20
64.4386
 11
-28.5648
 21
64.4386
  0
LINE
  8
0
 10
-28.5648
 20
64.4386
 11
-28.5881
 21
64.4386
  0
LINE
  8
0
 10
-28.5881
 20
64.4386
 11
-29.3372
 21
64.4386
  0
LINE
  8
0
 10
-29.3372
 20
64.4386
 11
-41.3539
 21
64.4386
  0
LINE
  8
0
 10
-41.3539
 20
64.4386
 11
-45.0194
 21
64.4386
  0
LINE
  8
0
 10
-45.0194
 20
64.4386
 11
-45.0375
 21
64.4386
  0
LINE
  8
0
 10
-45.0375
 20
64.4386
 11
-45.7218
 21
63.7499
  0
LINE
  8
0
 10
-45.7218
 20
63.7499
 11
-53.7569
 21
64.7326
  0
LINE
  8
0
 10
-53.7569
 20
64.7326
 11
-55.0185
 21
54.4177
  0
LINE
  8
0
 10
-55.0185
 20
54.4177
 11
-58.2597
 21
51.1764
  0
LINE
  8
0
 10
-58.2597
 20
51.1764
 11
-59.3711
 21
46.6217
  0
LINE
  8
0
 10
-59.3711
 20
46.6217
 11
-61.9365
 21
36.1075
  0
LINE
  8
0
 10
-61.9365
 20
36.1075
 11
-62.5581
 21
32.5566
  0
LINE
  8
0
 10
-62.5581
 20
32.5566
 11
-62.8274
 21
31.0184
  0
LINE
  8
0
 10
-62.8274
 20
31.0184
 11
-63.3151
 21
26.7112
  0
LINE
  8
0
 10
-63.3151
 20
26.7112
 11
-64.6754
 21
26.7112
  0
LINE
  8
0
 10
-64.6754
 20
26.7112
 11
-64.7068
 21
26.6961
  0
LINE
  8
0
 10
-64.7068
 20
26.6961
 11
-66.3807
 21
25.89
  0
LINE
  8
0
 10
-66.3807
 20
25.89
 11
-67.5391
 21
24.4374
  0
LINE
  8
0
 10
-67.5391
 20
24.4374
 11
-67.5609
 21
24.4102
  0
LINE
  8
0
 10
-67.5609
 20
24.4102
 11
-67.5686
 21
24.3762
  0
LINE
  8
0
 10
-67.5686
 20
24.3762
 11
-67.982
 21
22.5649
  0
LINE
  8
0
 10
-67.982
 20
22.5649
 11
-67.5686
 21
20.7535
  0
LINE
  8
0
 10
-67.5686
 20
20.7535
 11
-67.5609
 21
20.7195
  0
LINE
  8
0
 10
-67.5609
 20
20.7195
 11
-67.5391
 21
20.6923
  0
LINE
  8
0
 10
-67.5391
 20
20.6923
 11
-66.3807
 21
19.2397
  0
LINE
  8
0
 10
-66.3807
 20
19.2397
 11
-64.7068
 21
18.4336
  0
LINE
  8
0
 10
-64.7068
 20
18.4336
 11
-64.6754
 21
18.4185
  0
LINE
  8
0
 10
-64.6754
 20
18.4185
 11
-64.2542
 21
18.4185
  0
LINE
  8
0
 10
-64.2542
 20
18.4185
 11
-64.7306
 21
14.2113
  0
LINE
  8
0
 10
-64.7306
 20
14.2113
 11
-64.9226
 21
10.7614
  0
LINE
  8
0
 10
-64.9226
 20
10.7614
 11
-65.0345
 21
8.75
  0
LINE
  8
0
 10
-65.0345
 20
8.75
 11
-65.0345
 21
-8.75
  0
LINE
  8
0
 10
-65.0345
 20
-8.75
 11
-64.9226
 21
-10.7614
  0
LINE
  8
0
 10
-64.9226
 20
-10.7614
 11
-64.7306
 21
-14.2113
  0
LINE
  8
0
 10
-64.7306
 20
-14.2113
 11
-63.5284
 21
-24.8284
  0
LINE
  8
0
 10
-63.5284
 20
-24.8284
 11
-62.8274
 21
-31.0184
  0
LINE
  8
0
 10
-62.8274
 20
-31.0184
 11
-60.9272
 21
-34.3353
  0
LINE
  8
0
 10
-60.9272
 20
-34.3353
 11
-58.256
 21
-38.9979
  0
LINE
  8
0
 10
-58.256
 20
-38.9979
 11
-62.0971
 21
-42.221
  0
LINE
  8
0
 10
-62.0971
 20
-42.221
 11
-62.0973
 21
-42.2212
  0
LINE
  8
0
 10
-62.0973
 20
-42.2212
 11
-66.4685
 21
-45.889
  0
LINE
  8
0
 10
-66.4685
 20
-45.889
 11
-66.4685
 21
-45.889
  0
LINE
  8
0
 10
-66.4685
 20
-45.889
 11
-67.2245
 21
-46.8108
  0
LINE
  8
0
 10
-67.2245
 20
-46.8108
 11
-67.7244
 21
-47.4205
  0
LINE
  8
0
 10
-67.7244
 20
-47.4205
 11
-64.6873
 21
-54.9925
  0
LINE
  8
0
 10
-64.6873
 20
-54.9925
 11
-63.845
 21
-57.0925
  0
LINE
  8
0
 10
-63.845
 20
-57.0925
 11
-65.7302
 21
-59.5054
  0
LINE
  8
0
 10
-65.7302
 20
-59.5054
 11
-65.7304
 21
-59.5056
  0
LINE
  8
0
 10
-65.7304
 20
-59.5056
 11
-66.3078
 21
-60.2447
  0
LINE
  8
0
 10
-66.3078
 20
-60.2447
 11
-70.2903
 21
-67.4682
  0
LINE
  8
0
 10
-70.2903
 20
-67.4682
 11
-73.6605
 21
-73.5809
  0
LINE
  8
0
 10
-73.6605
 20
-73.5809
 11
-73.6605
 21
-73.5809
  0
LINE
  8
0
 10
-73.6605
 20
-73.5809
 11
-73.7202
 21
-73.6892
  0
LINE
  8
0
 10
-71.2938
 20
-75.43
 11
-60.8742
 21
-57.0892
  0
LINE
  8
0
 10
-60.8742
 20
-57.0892
 11
-60.8742
 21
-57.0892
  0
LINE
  8
0
 10
-60.8742
 20
-57.0892
 11
-60.8718
 21
-57.0861
  0
LINE
  8
0
 10
-60.8718
 20
-57.0861
 11
-60.8206
 21
-57.0206
  0
LINE
  8
0
 10
-60.8206
 20
-57.0206
 11
-60.8206
 21
-57.0206
  0
LINE
  8
0
 10
-60.8206
 20
-57.0206
 11
-60.8203
 21
-57.0202
  0
LINE
  8
0
 10
-60.8203
 20
-57.0202
 11
-60.8203
 21
-57.0202
  0
LINE
  8
0
 10
-60.8203
 20
-57.0202
 11
-60.7702
 21
-56.9561
  0
LINE
  8
0
 10
-60.7702
 20
-56.9561
 11
-63.8499
 21
-49.9145
  0
LINE
  8
0
 10
-63.8499
 20
-49.9145
 11
-64.8157
 21
-47.7061
  0
LINE
  8
0
 10
-64.8157
 20
-47.7061
 11
-62.287
 21
-45.5842
  0
LINE
  8
0
 10
-62.287
 20
-45.5842
 11
-62.2868
 21
-45.584
  0
LINE
  8
0
 10
-62.2868
 20
-45.584
 11
-56.1902
 21
-40.4684
  0
LINE
  8
0
 10
-56.1902
 20
-40.4684
 11
-56.1902
 21
-40.4684
  0
LINE
  8
0
 10
-56.1902
 20
-40.4684
 11
-55.629
 21
-39.7842
  0
LINE
  8
0
 10
-55.629
 20
-39.7842
 11
-55.629
 21
-39.7841
  0
LINE
  8
0
 10
-55.629
 20
-39.7841
 11
-54.9343
 21
-38.937
  0
LINE
  8
0
 10
-54.9343
 20
-38.937
 11
-54.9343
 21
-38.937
  0
LINE
  8
0
 10
-54.9343
 20
-38.937
 11
-56.6057
 21
-36.6235
  0
LINE
  8
0
 10
-56.6057
 20
-36.6235
 11
-60.7274
 21
-30.9184
  0
LINE
  8
0
 10
-60.7274
 20
-30.9184
 11
-61.349
 21
-25.4294
  0
LINE
  8
0
 10
-61.349
 20
-25.4294
 11
-62.6306
 21
-14.1113
  0
LINE
  8
0
 10
-62.6306
 20
-14.1113
 11
-62.732
 21
-12.2893
  0
LINE
  8
0
 10
-62.732
 20
-12.2893
 11
-62.9345
 21
-8.65
  0
LINE
  8
0
 10
-62.9345
 20
-8.65
 11
-62.9345
 21
8.65
  0
LINE
  8
0
 10
-62.9345
 20
8.65
 11
-62.732
 21
12.2893
  0
LINE
  8
0
 10
-62.732
 20
12.2893
 11
-62.6306
 21
14.1113
  0
LINE
  8
0
 10
-62.6306
 20
14.1113
 11
-62.106
 21
18.7443
  0
LINE
  8
0
 10
-62.106
 20
18.7443
 11
-61.0773
 21
19.2397
  0
LINE
  8
0
 10
-61.0773
 20
19.2397
 11
-59.9189
 21
20.6923
  0
LINE
  8
0
 10
-59.9189
 20
20.6923
 11
-59.8972
 21
20.7195
  0
LINE
  8
0
 10
-59.8972
 20
20.7195
 11
-59.8894
 21
20.7535
  0
LINE
  8
0
 10
-59.8894
 20
20.7535
 11
-59.476
 21
22.5649
  0
LINE
  8
0
 10
-59.476
 20
22.5649
 11
-59.8894
 21
24.3762
  0
LINE
  8
0
 10
-59.8894
 20
24.3762
 11
-59.8972
 21
24.4102
  0
LINE
  8
0
 10
-59.8972
 20
24.4102
 11
-59.9189
 21
24.4374
  0
LINE
  8
0
 10
-59.9189
 20
24.4374
 11
-61.0773
 21
25.89
  0
LINE
  8
0
 10
-61.0773
 20
25.89
 11
-61.2855
 21
25.9902
  0
LINE
  8
0
 10
-61.2855
 20
25.9902
 11
-60.7274
 21
30.9184
  0
LINE
  8
0
 10
-60.7274
 20
30.9184
 11
-60.4837
 21
32.3107
  0
LINE
  8
0
 10
-60.4837
 20
32.3107
 11
-59.8365
 21
36.0075
  0
LINE
  8
0
 10
-59.8365
 20
36.0075
 11
-57.1656
 21
46.9539
  0
LINE
  8
0
 10
-57.1656
 20
46.9539
 11
-56.1597
 21
51.0764
  0
LINE
  8
0
 10
-56.1597
 20
51.0764
 11
-55.325
 21
51.9111
  0
LINE
  8
0
 10
-55.325
 20
51.9111
 11
-62.4974
 21
-6.73494
  0
LINE
  8
0
 10
-62.4974
 20
-6.73494
 11
-53.961
 21
-7.77894
  0
LINE
  8
0
 10
-53.961
 20
-7.77894
 11
-45.6973
 21
59.7904
  0
LINE
  8
0
 10
-45.6973
 20
59.7904
 11
-44.1097
 21
60.8699
  0
LINE
  8
0
 10
-44.1097
 20
60.8699
 11
-31.4706
 21
60.8699
  0
LINE
  8
0
 10
-31.4706
 20
60.8699
 11
-28.4508
 21
60.8699
  0
LINE
  8
0
 10
-28.4508
 20
60.8699
 11
-26.0894
 21
60.8699
  0
LINE
  8
0
 10
-26.0894
 20
60.8699
 11
-25.4063
 21
60.8699
  0
LINE
  8
0
 10
-25.4063
 20
60.8699
 11
-12.8996
 21
60.8699
  0
LINE
  8
0
 10
-12.8996
 20
60.8699
 11
-9.15563
 21
60.8699
  0
LINE
  8
0
 10
-9.15563
 20
60.8699
 11
-9.15563
 21
60.8699
  0
LINE
  8
0
 10
-9.15563
 20
60.8699
 11
-9.13059
 21
60.8699
  0
LINE
  8
0
 10
-9.13059
 20
60.8699
 11
-8.51694
 21
61.7455
  0
LINE
  8
0
 10
-8.51694
 20
61.7455
 11
-7.15413
 21
63.6899
  0
LINE
  8
0
 10
-7.15413
 20
63.6899
 11
4.34227
 21
63.6899
  0
LINE
  8
0
 10
4.34227
 20
63.6899
 11
4.36811
 21
63.6899
  0
LINE
  8
0
 10
4.36811
 20
63.6899
 11
9.45978
 21
63.6899
  0
LINE
  8
0
 10
9.45978
 20
63.6899
 11
12.2629
 21
61.8843
  0
LINE
  8
0
 10
12.2629
 20
61.8843
 11
13.8377
 21
60.8699
  0
LINE
  8
0
 10
13.8377
 20
60.8699
 11
18.1733
 21
60.8699
  0
LINE
  8
0
 10
18.1733
 20
60.8699
 11
19.161
 21
59.6314
  0
LINE
  8
0
 10
19.161
 20
59.6314
 11
20.8349
 21
58.8253
  0
LINE
  8
0
 10
20.8349
 20
58.8253
 11
20.8663
 21
58.8101
  0
LINE
  8
0
 10
20.8663
 20
58.8101
 11
22.759
 21
58.8101
  0
LINE
  8
0
 10
22.759
 20
58.8101
 11
22.7904
 21
58.8253
  0
LINE
  8
0
 10
22.7904
 20
58.8253
 11
24.4644
 21
59.6314
  0
LINE
  8
0
 10
24.4644
 20
59.6314
 11
25.4521
 21
60.8699
  0
LINE
  8
0
 10
25.4521
 20
60.8699
 11
25.5152
 21
60.8699
  0
LINE
  8
0
 10
25.5152
 20
60.8699
 11
30.8749
 21
60.8699
  0
LINE
  8
0
 10
30.8749
 20
60.8699
 11
33.9361
 21
53.0923
  0
LINE
  8
0
 10
33.9361
 20
53.0923
 11
35.5981
 21
48.8699
  0
LINE
  8
0
 10
35.5981
 20
48.8699
 11
47.7397
 21
48.8699
  0
LINE
  8
0
 10
47.7397
 20
48.8699
 11
52.9006
 21
48.8699
  0
LINE
  8
0
 10
52.9006
 20
48.8699
 11
55.1585
 21
48.8699
  0
LINE
  8
0
 10
55.1585
 20
48.8699
 11
56.2211
 21
48.8699
  0
LINE
  8
0
 10
56.2211
 20
48.8699
 11
73.4211
 21
48.8699
  0
LINE
  8
0
 10
73.4211
 20
48.8699
 11
75.1294
 21
47.3905
  0
LINE
  8
0
 10
75.1294
 20
47.3905
 11
78.4211
 21
44.5398
  0
LINE
  8
0
 10
78.4211
 20
44.5398
 11
78.4211
 21
34.6972
  0
LINE
  8
0
 10
78.4211
 20
34.6972
 11
78.4211
 21
29.5993
  0
LINE
  8
0
 10
78.4211
 20
29.5993
 11
78.4211
 21
25.5376
  0
LINE
  8
0
 10
78.4211
 20
25.5376
 11
78.4211
 21
21.7545
  0
LINE
  8
0
 10
78.4211
 20
21.7545
 11
78.4211
 21
18.5935
  0
LINE
  8
0
 10
78.4211
 20
18.5935
 11
77.5747
 21
18.5935
  0
LINE
  8
0
 10
77.5747
 20
18.5935
 11
77.5433
 21
18.5784
  0
LINE
  8
0
 10
77.5433
 20
18.5784
 11
75.8694
 21
17.7723
  0
LINE
  8
0
 10
75.8694
 20
17.7723
 11
74.711
 21
16.3197
  0
LINE
  8
0
 10
74.711
 20
16.3197
 11
74.6893
 21
16.2925
  0
LINE
  8
0
 10
74.6893
 20
16.2925
 11
74.6815
 21
16.2585
  0
LINE
  8
0
 10
74.6815
 20
16.2585
 11
74.2681
 21
14.4471
  0
LINE
  8
0
 10
74.2681
 20
14.4471
 11
74.6815
 21
12.6358
  0
LINE
  8
0
 10
74.6815
 20
12.6358
 11
74.6893
 21
12.6018
  0
LINE
  8
0
 10
74.6893
 20
12.6018
 11
74.711
 21
12.5746
  0
LINE
  8
0
 10
74.711
 20
12.5746
 11
75.8694
 21
11.122
  0
LINE
  8
0
 10
75.8694
 20
11.122
 11
77.5433
 21
10.3159
  0
LINE
  8
0
 10
77.5433
 20
10.3159
 11
77.5747
 21
10.3008
  0
LINE
  8
0
 10
77.5747
 20
10.3008
 11
78.4211
 21
10.3008
  0
LINE
  8
0
 10
78.4211
 20
10.3008
 11
78.4211
 21
6.96209
  0
LINE
  8
0
 10
78.4211
 20
6.96209
 11
78.3244
 21
5.84095
  0
LINE
  8
0
 10
78.3244
 20
5.84095
 11
78.3242
 21
5.83895
  0
LINE
  8
0
 10
78.3242
 20
5.83895
 11
78.3193
 21
5.72652
  0
LINE
  8
0
 10
78.3193
 20
5.72652
 11
77.9232
 21
-3.3
  0
LINE
  8
0
 10
77.9232
 20
-3.3
 11
77.9232
 21
-20.7
  0
LINE
  8
0
 10
77.9232
 20
-20.7
 11
78.3193
 21
-29.7265
  0
LINE
  8
0
 10
78.3193
 20
-29.7265
 11
78.3242
 21
-29.8389
  0
LINE
  8
0
 10
78.3242
 20
-29.8389
 11
78.3244
 21
-29.8409
  0
LINE
  8
0
 10
78.3244
 20
-29.8409
 11
78.4211
 21
-30.9621
  0
LINE
  8
0
 10
78.4211
 20
-30.9621
 11
78.4211
 21
-38.5966
  0
LINE
  8
0
 10
78.4211
 20
-38.5966
 11
78.4211
 21
-45.7188
  0
LINE
  8
0
 10
78.4211
 20
-45.7188
 11
75.7594
 21
-48.2899
  0
LINE
  8
0
 10
75.7594
 20
-48.2899
 11
73.4211
 21
-50.5485
  0
LINE
  8
0
 10
73.4211
 20
-50.5485
 11
56.2211
 21
-50.5485
  0
LINE
  8
0
 10
56.2211
 20
-50.5485
 11
53.8346
 21
-50.5485
  0
LINE
  8
0
 10
53.8346
 20
-50.5485
 11
51.7386
 21
-50.5485
  0
LINE
  8
0
 10
51.7386
 20
-50.5485
 11
43.3246
 21
-50.5485
  0
LINE
  8
0
 10
43.3246
 20
-50.5485
 11
34.4573
 21
-50.5485
  0
LINE
  8
0
 10
34.4573
 20
-50.5485
 11
34.2854
 21
-51.077
  0
LINE
  8
0
 10
34.2854
 20
-51.077
 11
34.1627
 21
-51.4543
  0
LINE
  8
0
 10
34.1627
 20
-51.4543
 11
34.164
 21
-51.5106
  0
LINE
  8
0
 10
34.164
 20
-51.5106
 11
34.1895
 21
-52.602
  0
LINE
  8
0
 10
34.1895
 20
-52.602
 11
34.2091
 21
-53.4408
  0
LINE
  8
0
 10
34.2091
 20
-53.4408
 11
34.21
 21
-53.4828
  0
LINE
  8
0
 10
34.21
 20
-53.4828
 11
34.21
 21
-53.4828
  0
LINE
  8
0
 10
34.21
 20
-53.4828
 11
34.2664
 21
-53.4828
  0
LINE
  8
0
 10
34.2664
 20
-53.4828
 11
37.7037
 21
-53.4828
  0
LINE
  8
0
 10
37.7037
 20
-53.4828
 11
37.2584
 21
-54.236
  0
LINE
  8
0
 10
37.2584
 20
-54.236
 11
33.3369
 21
-60.8699
  0
LINE
  8
0
 10
33.3369
 20
-60.8699
 11
27.193
 21
-60.8699
  0
LINE
  8
0
 10
27.193
 20
-60.8699
 11
25.4521
 21
-60.8699
  0
LINE
  8
0
 10
25.4521
 20
-60.8699
 11
24.4644
 21
-59.6314
  0
LINE
  8
0
 10
24.4644
 20
-59.6314
 11
22.7904
 21
-58.8253
  0
LINE
  8
0
 10
22.7904
 20
-58.8253
 11
22.759
 21
-58.8101
  0
LINE
  8
0
 10
22.759
 20
-58.8101
 11
20.8663
 21
-58.8101
  0
LINE
  8
0
 10
20.8663
 20
-58.8101
 11
20.8349
 21
-58.8253
  0
LINE
  8
0
 10
20.8349
 20
-58.8253
 11
19.161
 21
-59.6314
  0
LINE
  8
0
 10
19.161
 20
-59.6314
 11
18.1733
 21
-60.8699
  0
LINE
  8
0
 10
18.1733
 20
-60.8699
 11
13.8377
 21
-60.8699
  0
LINE
  8
0
 10
13.8377
 20
-60.8699
 11
9.77221
 21
-61.9858
  0
LINE
  8
0
 10
9.77221
 20
-61.9858
 11
1.2105
 21
-64.3357
  0
LINE
  8
0
 10
1.2105
 20
-64.3357
 11
-4.97705
 21
-68.3567
  0
LINE
  8
0
 10
-4.97705
 20
-68.3567
 11
-12.5391
 21
-73.271
  0
LINE
  8
0
 10
-12.5391
 20
-73.271
 11
-13.4049
 21
-73.9319
  0
LINE
  8
0
 10
-13.4049
 20
-73.9319
 11
-14.1134
 21
-74.4727
  0
LINE
  8
0
 10
-14.1134
 20
-74.4727
 11
-14.1356
 21
-74.4973
  0
LINE
  8
0
 10
-14.1356
 20
-74.4973
 11
-19.8973
 21
-80.8964
  0
LINE
  8
0
 10
-19.8973
 20
-80.8964
 11
-23.7462
 21
-85.171
  0
LINE
  8
0
 10
-23.7462
 20
-85.171
 11
-23.7462
 21
-85.171
  0
LINE
  8
0
 10
-23.7462
 20
-85.171
 11
-23.7658
 21
-85.1928
  0
LINE
  8
0
 10
-23.7658
 20
-85.1928
 11
-23.4088
 21
-86.8493
  0
LINE
  8
0
 10
-23.4088
 20
-86.8493
 11
-22.7532
 21
-89.8924
  0
LINE
  8
0
 10
-22.7532
 20
-89.8924
 11
-25.0884
 21
-93.1065
  0
LINE
  8
0
 10
-25.0884
 20
-93.1065
 11
-36.9635
 21
-100.974
  0
LINE
  8
0
 10
-36.9635
 20
-100.974
 11
-39.4244
 21
-101.007
  0
LINE
  8
0
 10
-39.4244
 20
-101.007
 11
-51.702
 21
-90.2655
  0
LINE
  8
0
 10
-51.702
 20
-90.2655
 11
-52.1778
 21
-89.9198
  0
LINE
  8
0
 10
-52.1778
 20
-89.9198
 11
-52.8576
 21
-89.4259
  0
LINE
  8
0
 10
-52.8576
 20
-89.4259
 11
-52.9323
 21
-89.3716
  0
LINE
  8
0
 10
-52.9323
 20
-89.3716
 11
-53.2084
 21
-89.205
  0
LINE
  8
0
 10
-53.2084
 20
-89.205
 11
-57.8166
 21
-87.8652
  0
LINE
  8
0
 10
-57.8166
 20
-87.8652
 11
-57.8166
 21
-87.8652
  0
LINE
  8
0
 10
-57.8166
 20
-87.8652
 11
-68.6164
 21
-79.0197
  0
LINE
  8
0
 10
-68.6164
 20
-79.0197
 11
-71.1468
 21
-76.9472
  0
LINE
  8
0
 10
-71.1468
 20
-76.9472
 11
-71.2938
 21
-75.43
  0
LINE
  8
0
 10
-65.429
 20
22.5649
 11
-64.579
 21
24.0371
  0
LINE
  8
0
 10
-64.579
 20
24.0371
 11
-62.879
 21
24.0371
  0
LINE
  8
0
 10
-62.879
 20
24.0371
 11
-62.029
 21
22.5649
  0
LINE
  8
0
 10
-62.029
 20
22.5649
 11
-62.879
 21
21.0926
  0
LINE
  8
0
 10
-62.879
 20
21.0926
 11
-64.579
 21
21.0926
  0
LINE
  8
0
 10
-64.579
 20
21.0926
 11
-65.429
 21
22.5649
  0
LINE
  8
0
 10
20.1127
 20
-62.9565
 11
20.9627
 21
-61.4843
  0
LINE
  8
0
 10
20.9627
 20
-61.4843
 11
22.6627
 21
-61.4843
  0
LINE
  8
0
 10
22.6627
 20
-61.4843
 11
23.5127
 21
-62.9565
  0
LINE
  8
0
 10
23.5127
 20
-62.9565
 11
22.6627
 21
-64.4288
  0
LINE
  8
0
 10
22.6627
 20
-64.4288
 11
20.9627
 21
-64.4288
  0
LINE
  8
0
 10
20.9627
 20
-64.4288
 11
20.1127
 21
-62.9565
  0
LINE
  8
0
 10
20.1127
 20
62.9565
 11
20.9627
 21
64.4288
  0
LINE
  8
0
 10
20.9627
 20
64.4288
 11
22.6627
 21
64.4288
  0
LINE
  8
0
 10
22.6627
 20
64.4288
 11
23.5127
 21
62.9565
  0
LINE
  8
0
 10
23.5127
 20
62.9565
 11
22.6627
 21
61.4843
  0
LINE
  8
0
 10
22.6627
 20
61.4843
 11
20.9627
 21
61.4843
  0
LINE
  8
0
 10
20.9627
 20
61.4843
 11
20.1127
 21
62.9565
  0
LINE
  8
0
 10
76.8211
 20
14.4471
 11
77.6711
 21
15.9194
  0
LINE
  8
0
 10
77.6711
 20
15.9194
 11
79.3711
 21
15.9194
  0
LINE
  8
0
 10
79.3711
 20
15.9194
 11
80.2211
 21
14.4471
  0
LINE
  8
0
 10
80.2211
 20
14.4471
 11
79.3711
 21
12.9749
  0
LINE
  8
0
 10
79.3711
 20
12.9749
 11
77.6711
 21
12.9749
  0
LINE
  8
0
 10
77.6711
 20
12.9749
 11
76.8211
 21
14.4471
  0
ENDSEC
  0
SECTION
  2
OBJECTS
  0
DICTIONARY
  0
ENDSEC
  0
EOF
