  0
SECTION
  2
HEADER
  9
$ACADVER
  1
AC1009
  9
$INSBASE
 10
0.0
 20
0.0
 30
0.0
  9
$EXTMIN
 10
0.0
 20
0.0
 30
0.0
  9
$EXTMAX
 10
0.0
 20
0.0
 30
0.0
  0
ENDSEC
  0
SECTION
  2
TABLES
  0
TABLE
  2
VPORT
 70
0
  0
ENDTAB
  0
TABLE
  2
LTYPE
 70
1
  0
LTYPE
  2
CONTINUOUS
 70
0
  3
Solid line
 72
65
 73
0
 40
0.0
  0
ENDTAB
  0
TABLE
  2
LAYER
 70
1
  0
LAYER
  2
0
 70
64
 62
7
  6
continuous
  0
ENDTAB
  0
TABLE
  2
STYLE
 70
1
  0
STYLE
  2
STANDARD
 70
0
 40
0
 41
1.0
 50
0.0
 71
0
 42
1
 3
ARIAL.TTF
 4

  0
ENDTAB
  0
TABLE
  2
VIEW
 70
0
  0
ENDTAB
  0
ENDSEC
  0
SECTION
  2
BLOCKS
  0
ENDSEC
  0
SECTION
  2
ENTITIES
  0
LINE
  8
0
 62
3
 10
-73.7202
 20
-73.6892
 30
0.0
 11
-73.4887
 21
-75.9336
 31
0.0
  0
LINE
  8
0
 62
3
 10
-73.4887
 20
-75.9336
 30
0.0
 11
-73.1559
 21
-79.1617
 31
0.0
  0
LINE
  8
0
 62
3
 10
-73.0785
 20
-79.2253
 30
0.0
 11
-63.7044
 21
-86.9237
 31
0.0
  0
LINE
  8
0
 62
3
 10
-63.7044
 20
-86.9237
 30
0.0
 11
-59.7103
 21
-90.2038
 31
0.0
  0
LINE
  8
0
 62
3
 10
-59.6856
 20
-90.2241
 30
0.0
 11
-57.9985
 21
-91.0479
 31
0.0
  0
LINE
  8
0
 62
3
 10
-57.9985
 20
-91.0479
 30
0.0
 11
-54.8055
 21
-91.3987
 31
0.0
  0
LINE
  8
0
 62
3
 10
-54.8055
 20
-91.3987
 30
0.0
 11
-41.4608
 21
-103.198
 31
0.0
  0
LINE
  8
0
 62
3
 10
-41.4608
 20
-103.198
 30
0.0
 11
-39.6901
 21
-103.189
 31
0.0
  0
LINE
  8
0
 62
3
 10
-39.6901
 20
-103.189
 30
0.0
 11
-34.153
 21
-103.163
 31
0.0
  0
LINE
  8
0
 62
3
 10
-34.0452
 20
-103.094
 30
0.0
 11
-30.3169
 21
-100.704
 31
0.0
  0
LINE
  8
0
 62
3
 10
-30.3169
 20
-100.704
 30
0.0
 11
-26.1923
 21
-98.0603
 31
0.0
  0
LINE
  8
0
 62
3
 10
-26.1923
 20
-98.0603
 30
0.0
 11
-24.247
 21
-96.1065
 31
0.0
  0
LINE
  8
0
 62
3
 10
-24.247
 20
-96.1065
 30
0.0
 11
-21.7809
 21
-93.6298
 31
0.0
  0
LINE
  8
0
 62
3
 10
-21.7809
 20
-93.6298
 30
0.0
 11
-21.1617
 21
-92.7775
 31
0.0
  0
LINE
  8
0
 62
3
 10
-21.1617
 20
-92.7775
 30
0.0
 11
-19.3985
 21
-90.3507
 31
0.0
  0
LINE
  8
0
 62
3
 10
-19.3985
 20
-90.3507
 30
0.0
 11
-20.3871
 21
-86.5039
 31
0.0
  0
LINE
  8
0
 62
3
 10
-20.3871
 20
-86.5039
 30
0.0
 11
-20.6661
 21
-85.4182
 31
0.0
  0
LINE
  8
0
 62
3
 10
-20.6661
 20
-85.4182
 30
0.0
 11
-16.3821
 21
-80.6603
 31
0.0
  0
LINE
  8
0
 62
3
 10
-16.3821
 20
-80.6603
 30
0.0
 11
-11.466
 21
-75.2005
 31
0.0
  0
LINE
  8
0
 62
3
 10
-11.466
 20
-75.2005
 30
0.0
 11
-8.78252
 21
-73.4101
 31
0.0
  0
LINE
  8
0
 62
3
 10
-8.78252
 20
-73.4101
 30
0.0
 11
-1.78294
 21
-68.7404
 31
0.0
  0
LINE
  8
0
 62
3
 10
-1.78294
 20
-68.7404
 30
0.0
 11
-1.03895
 21
-69.6733
 31
0.0
  0
LINE
  8
0
 62
3
 10
-1.03895
 20
-69.6733
 30
0.0
 11
0.634983
 21
-70.4794
 31
0.0
  0
LINE
  8
0
 62
3
 10
0.666379
 20
-70.4945
 30
0.0
 11
2.55915
 21
-70.4945
 31
0.0
  0
LINE
  8
0
 62
3
 10
2.59055
 20
-70.4794
 30
0.0
 11
4.26448
 21
-69.6733
 31
0.0
  0
LINE
  8
0
 62
3
 10
4.26448
 20
-69.6733
 30
0.0
 11
5.42287
 21
-68.2207
 31
0.0
  0
LINE
  8
0
 62
3
 10
5.45236
 20
-68.1595
 30
0.0
 11
5.86578
 21
-66.3481
 31
0.0
  0
LINE
  8
0
 62
3
 10
5.80233
 20
-66.0702
 30
0.0
 11
13.5922
 21
-64.4386
 31
0.0
  0
LINE
  8
0
 62
3
 10
13.5922
 20
-64.4386
 30
0.0
 11
21.4072
 21
-64.4386
 31
0.0
  0
LINE
  8
0
 62
3
 10
21.4506
 20
-64.4386
 30
0.0
 11
34.0762
 21
-64.4386
 31
0.0
  0
LINE
  8
0
 62
3
 10
34.0762
 20
-64.4386
 30
0.0
 11
38.4969
 21
-57.7181
 31
0.0
  0
LINE
  8
0
 62
3
 10
38.4969
 20
-57.7181
 30
0.0
 11
41.283
 21
-53.4828
 31
0.0
  0
LINE
  8
0
 62
3
 10
41.283
 20
-53.4828
 30
0.0
 11
44.9281
 21
-53.4828
 31
0.0
  0
LINE
  8
0
 62
3
 10
44.9281
 20
-53.4828
 30
0.0
 11
51.5058
 21
-53.4828
 31
0.0
  0
LINE
  8
0
 62
3
 10
51.5058
 20
-53.4828
 30
0.0
 11
54.3719
 21
-53.4828
 31
0.0
  0
LINE
  8
0
 62
3
 10
54.3719
 20
-53.4828
 30
0.0
 11
73.5211
 21
-53.4828
 31
0.0
  0
LINE
  8
0
 62
3
 10
73.5211
 20
-53.4828
 30
0.0
 11
78.4574
 21
-48.7147
 31
0.0
  0
LINE
  8
0
 62
3
 10
78.4574
 20
-48.7147
 30
0.0
 11
80.5211
 21
-46.7213
 31
0.0
  0
LINE
  8
0
 62
3
 10
80.5211
 20
-46.6531
 30
0.0
 11
80.5211
 21
-30.9621
 31
0.0
  0
LINE
  8
0
 62
3
 10
80.5211
 20
-30.9621
 30
0.0
 11
80.5211
 21
6.96211
 31
0.0
  0
LINE
  8
0
 62
3
 10
80.5211
 20
6.96211
 30
0.0
 11
80.5211
 21
10.8082
 31
0.0
  0
LINE
  8
0
 62
3
 10
80.5211
 20
10.8082
 30
0.0
 11
81.1728
 21
11.122
 31
0.0
  0
LINE
  8
0
 62
3
 10
81.1728
 20
11.122
 30
0.0
 11
82.3312
 21
12.5746
 31
0.0
  0
LINE
  8
0
 62
3
 10
82.3607
 20
12.6358
 30
0.0
 11
82.7741
 21
14.4471
 31
0.0
  0
LINE
  8
0
 62
3
 10
82.7741
 20
14.4471
 30
0.0
 11
82.3607
 21
16.2585
 31
0.0
  0
LINE
  8
0
 62
3
 10
82.3312
 20
16.3197
 30
0.0
 11
81.1728
 21
17.7723
 31
0.0
  0
LINE
  8
0
 62
3
 10
81.1728
 20
17.7723
 30
0.0
 11
80.5211
 21
18.0861
 31
0.0
  0
LINE
  8
0
 62
3
 10
80.5211
 20
18.0861
 30
0.0
 11
80.5211
 21
22.6531
 31
0.0
  0
LINE
  8
0
 62
3
 10
80.5211
 20
22.6531
 30
0.0
 11
80.5211
 21
25.1989
 31
0.0
  0
LINE
  8
0
 62
3
 10
80.5211
 20
25.2783
 30
0.0
 11
80.5211
 21
31.3452
 31
0.0
  0
LINE
  8
0
 62
3
 10
80.5211
 20
31.3452
 30
0.0
 11
80.5211
 21
37.864
 31
0.0
  0
LINE
  8
0
 62
3
 10
80.5211
 20
37.864
 30
0.0
 11
80.5211
 21
46.3434
 31
0.0
  0
LINE
  8
0
 62
3
 10
80.5211
 20
46.3764
 30
0.0
 11
78.1707
 21
48.4119
 31
0.0
  0
LINE
  8
0
 62
3
 10
78.1707
 20
48.4119
 30
0.0
 11
73.5211
 21
52.4386
 31
0.0
  0
LINE
  8
0
 62
3
 10
73.5211
 20
52.4386
 30
0.0
 11
53.8219
 21
52.4386
 31
0.0
  0
LINE
  8
0
 62
3
 10
53.8219
 20
52.4386
 30
0.0
 11
52.6929
 21
52.4386
 31
0.0
  0
LINE
  8
0
 62
3
 10
52.6929
 20
52.4386
 30
0.0
 11
41.2175
 21
52.4386
 31
0.0
  0
LINE
  8
0
 62
3
 10
41.2175
 20
52.4386
 30
0.0
 11
35.525
 21
52.4386
 31
0.0
  0
LINE
  8
0
 62
3
 10
35.525
 20
52.4386
 30
0.0
 11
33.6754
 21
56.9721
 31
0.0
  0
LINE
  8
0
 62
3
 10
33.6754
 20
56.9721
 30
0.0
 11
30.6293
 21
64.4386
 31
0.0
  0
LINE
  8
0
 62
3
 10
30.6293
 20
64.4386
 30
0.0
 11
25.7274
 21
64.4386
 31
0.0
  0
LINE
  8
0
 62
3
 10
25.6228
 20
64.8291
 30
0.0
 11
24.4644
 21
66.2817
 31
0.0
  0
LINE
  8
0
 62
3
 10
24.4644
 20
66.2817
 30
0.0
 11
22.7904
 21
67.0878
 31
0.0
  0
LINE
  8
0
 62
3
 10
22.759
 20
67.1029
 30
0.0
 11
20.8663
 21
67.1029
 31
0.0
  0
LINE
  8
0
 62
3
 10
20.8349
 20
67.0878
 30
0.0
 11
19.161
 21
66.2817
 31
0.0
  0
LINE
  8
0
 62
3
 10
19.161
 20
66.2817
 30
0.0
 11
18.0026
 21
64.8291
 31
0.0
  0
LINE
  8
0
 62
3
 10
17.8979
 20
64.4386
 30
0.0
 11
13.5922
 21
64.4386
 31
0.0
  0
LINE
  8
0
 62
3
 10
13.5922
 20
64.4386
 30
0.0
 11
10.5885
 21
66.3008
 31
0.0
  0
LINE
  8
0
 62
3
 10
10.5885
 20
66.3008
 30
0.0
 11
9.04363
 21
67.2586
 31
0.0
  0
LINE
  8
0
 62
3
 10
9.04363
 20
67.2586
 30
0.0
 11
-1.2688
 21
67.2586
 31
0.0
  0
LINE
  8
0
 62
3
 10
-1.31251
 20
67.2586
 30
0.0
 11
-7.76348
 21
67.2586
 31
0.0
  0
LINE
  8
0
 62
3
 10
-7.76348
 20
67.2586
 30
0.0
 11
-8.36293
 21
66.4681
 31
0.0
  0
LINE
  8
0
 62
3
 10
-8.36293
 20
66.4681
 30
0.0
 11
-9.90213
 21
64.4386
 31
0.0
  0
LINE
  8
0
 62
3
 10
-9.90213
 20
64.4386
 30
0.0
 11
-21.5714
 21
64.4386
 31
0.0
  0
LINE
  8
0
 62
3
 10
-21.6021
 20
64.4386
 30
0.0
 11
-26.1362
 21
64.4386
 31
0.0
  0
LINE
  8
0
 62
3
 10
-26.1362
 20
64.4386
 30
0.0
 11
-28.5648
 21
64.4386
 31
0.0
  0
LINE
  8
0
 62
3
 10
-28.5881
 20
64.4386
 30
0.0
 11
-29.3372
 21
64.4386
 31
0.0
  0
LINE
  8
0
 62
3
 10
-29.3372
 20
64.4386
 30
0.0
 11
-41.3539
 21
64.4386
 31
0.0
  0
LINE
  8
0
 62
3
 10
-41.3539
 20
64.4386
 30
0.0
 11
-45.0194
 21
64.4386
 31
0.0
  0
LINE
  8
0
 62
3
 10
-45.0375
 20
64.4386
 30
0.0
 11
-50.0176
 21
59.4265
 31
0.0
  0
LINE
  8
0
 62
3
 10
-50.0176
 20
59.4265
 30
0.0
 11
-51.2597
 21
58.1764
 31
0.0
  0
LINE
  8
0
 62
3
 10
-51.2597
 20
58.1764
 30
0.0
 11
-58.2597
 21
51.1764
 31
0.0
  0
LINE
  8
0
 62
3
 10
-58.2597
 20
51.1764
 30
0.0
 11
-59.0989
 21
47.737
 31
0.0
  0
LINE
  8
0
 62
3
 10
-59.1017
 20
47.7384
 30
0.0
 11
-60.9945
 21
47.7384
 31
0.0
  0
LINE
  8
0
 62
3
 10
-61.0259
 20
47.7232
 30
0.0
 11
-62.6998
 21
46.9171
 31
0.0
  0
LINE
  8
0
 62
3
 10
-62.6998
 20
46.9171
 30
0.0
 11
-63.8582
 21
45.4645
 31
0.0
  0
LINE
  8
0
 62
3
 10
-63.8877
 20
45.4033
 30
0.0
 11
-64.3011
 21
43.592
 31
0.0
  0
LINE
  8
0
 62
3
 10
-64.3011
 20
43.592
 30
0.0
 11
-63.8877
 21
41.7806
 31
0.0
  0
LINE
  8
0
 62
3
 10
-63.8582
 20
41.7194
 30
0.0
 11
-62.6998
 21
40.2668
 31
0.0
  0
LINE
  8
0
 62
3
 10
-62.6998
 20
40.2668
 30
0.0
 11
-61.1086
 21
39.5005
 31
0.0
  0
LINE
  8
0
 62
3
 10
-61.1086
 20
39.5005
 30
0.0
 11
-61.9365
 21
36.1075
 31
0.0
  0
LINE
  8
0
 62
3
 10
-61.9365
 20
36.1075
 30
0.0
 11
-62.5581
 21
32.5566
 31
0.0
  0
LINE
  8
0
 62
3
 10
-62.5581
 20
32.5566
 30
0.0
 11
-62.8274
 21
31.0184
 31
0.0
  0
LINE
  8
0
 62
3
 10
-62.8274
 20
31.0184
 30
0.0
 11
-63.5284
 21
24.8284
 31
0.0
  0
LINE
  8
0
 62
3
 10
-63.5284
 20
24.8284
 30
0.0
 11
-64.7306
 21
14.2113
 31
0.0
  0
LINE
  8
0
 62
3
 10
-64.7306
 20
14.2113
 30
0.0
 11
-64.9226
 21
10.7614
 31
0.0
  0
LINE
  8
0
 62
3
 10
-64.9226
 20
10.7614
 30
0.0
 11
-65.0345
 21
8.75
 31
0.0
  0
LINE
  8
0
 62
3
 10
-65.0345
 20
8.75
 30
0.0
 11
-65.0345
 21
-8.75
 31
0.0
  0
LINE
  8
0
 62
3
 10
-65.0345
 20
-8.75
 30
0.0
 11
-64.9226
 21
-10.7614
 31
0.0
  0
LINE
  8
0
 62
3
 10
-64.9226
 20
-10.7614
 30
0.0
 11
-64.7306
 21
-14.2113
 31
0.0
  0
LINE
  8
0
 62
3
 10
-64.7306
 20
-14.2113
 30
0.0
 11
-63.5284
 21
-24.8284
 31
0.0
  0
LINE
  8
0
 62
3
 10
-63.5284
 20
-24.8284
 30
0.0
 11
-62.8274
 21
-31.0184
 31
0.0
  0
LINE
  8
0
 62
3
 10
-62.8274
 20
-31.0184
 30
0.0
 11
-60.9272
 21
-34.3353
 31
0.0
  0
LINE
  8
0
 62
3
 10
-60.9272
 20
-34.3353
 30
0.0
 11
-58.256
 21
-38.9979
 31
0.0
  0
LINE
  8
0
 62
3
 10
-58.256
 20
-38.9979
 30
0.0
 11
-58.9034
 21
-39.5411
 31
0.0
  0
LINE
  8
0
 62
3
 10
-59.1017
 20
-39.4456
 30
0.0
 11
-60.9945
 21
-39.4456
 31
0.0
  0
LINE
  8
0
 62
3
 10
-61.0259
 20
-39.4607
 30
0.0
 11
-62.6998
 21
-40.2668
 31
0.0
  0
LINE
  8
0
 62
3
 10
-62.6998
 20
-40.2668
 30
0.0
 11
-63.8582
 21
-41.7194
 31
0.0
  0
LINE
  8
0
 62
3
 10
-63.8877
 20
-41.7806
 30
0.0
 11
-64.3011
 21
-43.592
 31
0.0
  0
LINE
  8
0
 62
3
 10
-64.2095
 20
-43.9935
 30
0.0
 11
-66.4685
 21
-45.889
 31
0.0
  0
LINE
  8
0
 62
3
 10
-66.4685
 20
-45.889
 30
0.0
 11
-67.2245
 21
-46.8108
 31
0.0
  0
LINE
  8
0
 62
3
 10
-67.2245
 20
-46.8108
 30
0.0
 11
-67.7244
 21
-47.4205
 31
0.0
  0
LINE
  8
0
 62
3
 10
-67.7244
 20
-47.4205
 30
0.0
 11
-64.6873
 21
-54.9925
 31
0.0
  0
LINE
  8
0
 62
3
 10
-64.6873
 20
-54.9925
 30
0.0
 11
-63.845
 21
-57.0925
 31
0.0
  0
LINE
  8
0
 62
3
 10
-63.845
 20
-57.0925
 30
0.0
 11
-65.7302
 21
-59.5054
 31
0.0
  0
LINE
  8
0
 62
3
 10
-65.7304
 20
-59.5056
 30
0.0
 11
-66.3078
 21
-60.2447
 31
0.0
  0
LINE
  8
0
 62
3
 10
-66.3078
 20
-60.2447
 30
0.0
 11
-70.2903
 21
-67.4682
 31
0.0
  0
LINE
  8
0
 62
3
 10
-70.2903
 20
-67.4682
 30
0.0
 11
-73.6605
 21
-73.5809
 31
0.0
  0
LINE
  8
0
 62
5
 10
-61.7481
 20
-43.592
 30
0.0
 11
-60.8981
 21
-42.1197
 31
0.0
  0
LINE
  8
0
 62
5
 10
-60.8981
 20
-42.1197
 30
0.0
 11
-59.1981
 21
-42.1197
 31
0.0
  0
LINE
  8
0
 62
5
 10
-59.1981
 20
-42.1197
 30
0.0
 11
-58.3481
 21
-43.592
 31
0.0
  0
LINE
  8
0
 62
5
 10
-58.3481
 20
-43.592
 30
0.0
 11
-59.1981
 21
-45.0642
 31
0.0
  0
LINE
  8
0
 62
5
 10
-59.1981
 20
-45.0642
 30
0.0
 11
-60.8981
 21
-45.0642
 31
0.0
  0
LINE
  8
0
 62
5
 10
-60.8981
 20
-45.0642
 30
0.0
 11
-61.7481
 21
-43.592
 31
0.0
  0
LINE
  8
0
 62
5
 10
-61.7481
 20
43.592
 30
0.0
 11
-60.8981
 21
45.0642
 31
0.0
  0
LINE
  8
0
 62
5
 10
-60.8981
 20
45.0642
 30
0.0
 11
-59.1981
 21
45.0642
 31
0.0
  0
LINE
  8
0
 62
5
 10
-59.1981
 20
45.0642
 30
0.0
 11
-58.3481
 21
43.592
 31
0.0
  0
LINE
  8
0
 62
5
 10
-58.3481
 20
43.592
 30
0.0
 11
-59.1981
 21
42.1197
 31
0.0
  0
LINE
  8
0
 62
5
 10
-59.1981
 20
42.1197
 30
0.0
 11
-60.8981
 21
42.1197
 31
0.0
  0
LINE
  8
0
 62
5
 10
-60.8981
 20
42.1197
 30
0.0
 11
-61.7481
 21
43.592
 31
0.0
  0
LINE
  8
0
 62
5
 10
-0.087235
 20
-66.3481
 30
0.0
 11
0.762765
 21
-64.8759
 31
0.0
  0
LINE
  8
0
 62
5
 10
0.762765
 20
-64.8759
 30
0.0
 11
2.46276
 21
-64.8759
 31
0.0
  0
LINE
  8
0
 62
5
 10
2.46276
 20
-64.8759
 30
0.0
 11
3.31276
 21
-66.3481
 31
0.0
  0
LINE
  8
0
 62
5
 10
3.31276
 20
-66.3481
 30
0.0
 11
2.46276
 21
-67.8204
 31
0.0
  0
LINE
  8
0
 62
5
 10
2.46276
 20
-67.8204
 30
0.0
 11
0.762765
 21
-67.8204
 31
0.0
  0
LINE
  8
0
 62
5
 10
0.762765
 20
-67.8204
 30
0.0
 11
-0.087235
 21
-66.3481
 31
0.0
  0
LINE
  8
0
 62
5
 10
20.1127
 20
62.9565
 30
0.0
 11
20.9627
 21
64.4288
 31
0.0
  0
LINE
  8
0
 62
5
 10
20.9627
 20
64.4288
 30
0.0
 11
22.6627
 21
64.4288
 31
0.0
  0
LINE
  8
0
 62
5
 10
22.6627
 20
64.4288
 30
0.0
 11
23.5127
 21
62.9565
 31
0.0
  0
LINE
  8
0
 62
5
 10
23.5127
 20
62.9565
 30
0.0
 11
22.6627
 21
61.4843
 31
0.0
  0
LINE
  8
0
 62
5
 10
22.6627
 20
61.4843
 30
0.0
 11
20.9627
 21
61.4843
 31
0.0
  0
LINE
  8
0
 62
5
 10
20.9627
 20
61.4843
 30
0.0
 11
20.1127
 21
62.9565
 31
0.0
  0
LINE
  8
0
 62
5
 10
76.8211
 20
14.4471
 30
0.0
 11
77.6711
 21
15.9194
 31
0.0
  0
LINE
  8
0
 62
5
 10
77.6711
 20
15.9194
 30
0.0
 11
79.3711
 21
15.9194
 31
0.0
  0
LINE
  8
0
 62
5
 10
79.3711
 20
15.9194
 30
0.0
 11
80.2211
 21
14.4471
 31
0.0
  0
LINE
  8
0
 62
5
 10
80.2211
 20
14.4471
 30
0.0
 11
79.3711
 21
12.9749
 31
0.0
  0
LINE
  8
0
 62
5
 10
79.3711
 20
12.9749
 30
0.0
 11
77.6711
 21
12.9749
 31
0.0
  0
LINE
  8
0
 62
5
 10
77.6711
 20
12.9749
 30
0.0
 11
76.8211
 21
14.4471
 31
0.0
  0
ENDSEC
  0
EOF
