  0
SECTION
  2
BLOCKS
  0
ENDSEC
  0
SECTION
  2
ENTITIES
  0
LINE
  8
0
 10
-93.2728
 20
-73.4625
 11
-93.0511
 21
-75.6132
  0
LINE
  8
0
 10
-93.0511
 20
-75.6132
 11
-92.6906
 21
-79.1101
  0
LINE
  8
0
 10
-92.6906
 20
-79.1101
 11
-92.6341
 21
-79.1564
  0
LINE
  8
0
 10
-92.6341
 20
-79.1564
 11
-92.6131
 21
-79.1737
  0
LINE
  8
0
 10
-92.6131
 20
-79.1737
 11
-92.6131
 21
-79.1737
  0
LINE
  8
0
 10
-92.6131
 20
-79.1737
 11
-83.5008
 21
-86.6571
  0
LINE
  8
0
 10
-83.5008
 20
-86.6571
 11
-79.2465
 21
-90.1509
  0
LINE
  8
0
 10
-79.2465
 20
-90.1509
 11
-79.2202
 21
-90.1725
  0
LINE
  8
0
 10
-79.2202
 20
-90.1725
 11
-77.4233
 21
-91.05
  0
LINE
  8
0
 10
-77.4233
 20
-91.05
 11
-74.3008
 21
-91.3929
  0
LINE
  8
0
 10
-74.3008
 20
-91.3929
 11
-74.3008
 21
-91.3929
  0
LINE
  8
0
 10
-74.3008
 20
-91.3929
 11
-64.6126
 21
-99.9591
  0
LINE
  8
0
 10
-64.6126
 20
-99.9591
 11
-61.0333
 21
-103.124
  0
LINE
  8
0
 10
-61.0333
 20
-103.124
 11
-61.0333
 21
-103.124
  0
LINE
  8
0
 10
-61.0333
 20
-103.124
 11
-60.9562
 21
-103.192
  0
LINE
  8
0
 10
-60.9562
 20
-103.192
 11
-59.2412
 21
-103.184
  0
LINE
  8
0
 10
-59.2412
 20
-103.184
 11
-53.4344
 21
-103.156
  0
LINE
  8
0
 10
-53.4344
 20
-103.156
 11
-53.395
 21
-103.131
  0
LINE
  8
0
 10
-53.395
 20
-103.131
 11
-49.8818
 21
-100.879
  0
LINE
  8
0
 10
-49.8818
 20
-100.879
 11
-46.0622
 21
-98.4307
  0
LINE
  8
0
 10
-46.0622
 20
-98.4307
 11
-43.5926
 21
-95.9505
  0
LINE
  8
0
 10
-43.5926
 20
-95.9505
 11
-41.6508
 21
-94.0002
  0
LINE
  8
0
 10
-41.6508
 20
-94.0002
 11
-40.9279
 21
-93.0053
  0
LINE
  8
0
 10
-40.9279
 20
-93.0053
 11
-40.9278
 21
-93.0051
  0
LINE
  8
0
 10
-40.9278
 20
-93.0051
 11
-38.9992
 21
-90.3507
  0
LINE
  8
0
 10
-38.9992
 20
-90.3507
 11
-38.9992
 21
-90.3507
  0
LINE
  8
0
 10
-38.9992
 20
-90.3507
 11
-39.9656
 21
-86.5902
  0
LINE
  8
0
 10
-39.9656
 20
-86.5902
 11
-40.2668
 21
-85.4182
  0
LINE
  8
0
 10
-40.2668
 20
-85.4182
 11
-36.0694
 21
-80.7565
  0
LINE
  8
0
 10
-36.0694
 20
-80.7565
 11
-36.0691
 21
-80.7562
  0
LINE
  8
0
 10
-36.0691
 20
-80.7562
 11
-31.0667
 21
-75.2005
  0
LINE
  8
0
 10
-31.0667
 20
-75.2005
 11
-24.229
 21
-70.6386
  0
LINE
  8
0
 10
-24.229
 20
-70.6386
 11
-24.2286
 21
-70.6384
  0
LINE
  8
0
 10
-24.2286
 20
-70.6384
 11
-19.0209
 21
-67.164
  0
LINE
  8
0
 10
-19.0209
 20
-67.164
 11
-14.499
 21
-66.1796
  0
LINE
  8
0
 10
-14.499
 20
-66.1796
 11
-6.5022
 21
-64.4386
  0
LINE
  8
0
 10
-6.5022
 20
-64.4386
 11
-2.48088
 21
-64.4386
  0
LINE
  8
0
 10
-2.48088
 20
-64.4386
 11
-2.40572
 21
-64.7679
  0
LINE
  8
0
 10
-2.40572
 20
-64.7679
 11
-2.39797
 21
-64.8018
  0
LINE
  8
0
 10
-2.39797
 20
-64.8018
 11
-2.37624
 21
-64.8291
  0
LINE
  8
0
 10
-2.37624
 20
-64.8291
 11
-1.21784
 21
-66.2817
  0
LINE
  8
0
 10
-1.21784
 20
-66.2817
 11
0.456089
 21
-67.0878
  0
LINE
  8
0
 10
0.456089
 20
-67.0878
 11
0.487486
 21
-67.1029
  0
LINE
  8
0
 10
0.487486
 20
-67.1029
 11
2.38026
 21
-67.1029
  0
LINE
  8
0
 10
2.38026
 20
-67.1029
 11
2.41165
 21
-67.0878
  0
LINE
  8
0
 10
2.41165
 20
-67.0878
 11
4.08558
 21
-66.2817
  0
LINE
  8
0
 10
4.08558
 20
-66.2817
 11
5.24398
 21
-64.8291
  0
LINE
  8
0
 10
5.24398
 20
-64.8291
 11
5.26571
 21
-64.8018
  0
LINE
  8
0
 10
5.26571
 20
-64.8018
 11
5.27346
 21
-64.7679
  0
LINE
  8
0
 10
5.27346
 20
-64.7679
 11
5.34862
 21
-64.4386
  0
LINE
  8
0
 10
5.34862
 20
-64.4386
 11
13.5891
 21
-64.4386
  0
LINE
  8
0
 10
13.5891
 20
-64.4386
 11
17.1935
 21
-57.8831
  0
LINE
  8
0
 10
17.1935
 20
-57.8831
 11
19.613
 21
-53.4828
  0
LINE
  8
0
 10
19.613
 20
-53.4828
 11
27.5392
 21
-53.4828
  0
LINE
  8
0
 10
27.5392
 20
-53.4828
 11
27.6488
 21
-53.4828
  0
LINE
  8
0
 10
27.6488
 20
-53.4828
 11
29.6676
 21
-53.4828
  0
LINE
  8
0
 10
29.6676
 20
-53.4828
 11
32.6257
 21
-50.4426
  0
LINE
  8
0
 10
32.6257
 20
-50.4426
 11
34.6836
 21
-48.2487
  0
LINE
  8
0
 10
34.6836
 20
-48.2487
 11
36.5377
 21
-46.2721
  0
LINE
  8
0
 10
36.5377
 20
-46.2721
 11
36.75
 21
-45.9445
  0
LINE
  8
0
 10
36.75
 20
-45.9445
 11
36.8337
 21
-45.8154
  0
LINE
  8
0
 10
36.8337
 20
-45.8154
 11
36.833
 21
-45.8017
  0
LINE
  8
0
 10
36.833
 20
-45.8017
 11
36.8292
 21
-45.7188
  0
LINE
  8
0
 10
36.8292
 20
-45.7188
 11
36.8292
 21
-45.7188
  0
LINE
  8
0
 10
36.8292
 20
-45.7188
 11
36.8292
 21
-45.7188
  0
LINE
  8
0
 10
36.8292
 20
-45.7188
 11
36.7229
 21
-43.4342
  0
LINE
  8
0
 10
36.7229
 20
-43.4342
 11
36.7229
 21
-43.434
  0
LINE
  8
0
 10
36.7229
 20
-43.434
 11
36.5377
 21
-39.4549
  0
LINE
  8
0
 10
36.5377
 20
-39.4549
 11
36.5377
 21
-39.4549
  0
LINE
  8
0
 10
36.5377
 20
-39.4549
 11
35.5603
 21
-28.4073
  0
LINE
  8
0
 10
35.5603
 20
-28.4073
 11
35.5146
 21
-27.391
  0
LINE
  8
0
 10
35.5146
 20
-27.391
 11
35.2096
 21
-20.6
  0
LINE
  8
0
 10
35.2096
 20
-20.6
 11
35.2096
 21
-15.6332
  0
LINE
  8
0
 10
35.2096
 20
-15.6332
 11
35.8492
 21
-15.3251
  0
LINE
  8
0
 10
35.8492
 20
-15.3251
 11
37.0076
 21
-13.8726
  0
LINE
  8
0
 10
37.0076
 20
-13.8726
 11
37.0294
 21
-13.8453
  0
LINE
  8
0
 10
37.0294
 20
-13.8453
 11
37.0371
 21
-13.8113
  0
LINE
  8
0
 10
37.0371
 20
-13.8113
 11
37.4505
 21
-12
  0
LINE
  8
0
 10
37.4505
 20
-12
 11
37.0371
 21
-10.1887
  0
LINE
  8
0
 10
37.0371
 20
-10.1887
 11
37.0294
 21
-10.1547
  0
LINE
  8
0
 10
37.0294
 20
-10.1547
 11
37.0076
 21
-10.1274
  0
LINE
  8
0
 10
37.0076
 20
-10.1274
 11
35.8492
 21
-8.67486
  0
LINE
  8
0
 10
35.8492
 20
-8.67486
 11
35.2096
 21
-8.36682
  0
LINE
  8
0
 10
35.2096
 20
-8.36682
 11
35.2096
 21
-3.4
  0
LINE
  8
0
 10
35.2096
 20
-3.4
 11
35.5146
 21
3.39103
  0
LINE
  8
0
 10
35.5146
 20
3.39103
 11
35.5603
 21
4.40729
  0
LINE
  8
0
 10
35.5603
 20
4.40729
 11
36.5377
 21
15.4549
  0
LINE
  8
0
 10
36.5377
 20
15.4549
 11
36.5377
 21
15.4549
  0
LINE
  8
0
 10
36.5377
 20
15.4549
 11
36.7229
 21
19.434
  0
LINE
  8
0
 10
36.7229
 20
19.434
 11
36.7229
 21
19.4342
  0
LINE
  8
0
 10
36.7229
 20
19.4342
 11
36.8292
 21
21.7188
  0
LINE
  8
0
 10
36.8292
 20
21.7188
 11
36.8292
 21
21.7188
  0
LINE
  8
0
 10
36.8292
 20
21.7188
 11
36.8292
 21
21.7188
  0
LINE
  8
0
 10
36.8292
 20
21.7188
 11
36.833
 21
21.8017
  0
LINE
  8
0
 10
36.833
 20
21.8017
 11
36.8337
 21
21.8154
  0
LINE
  8
0
 10
36.8337
 20
21.8154
 11
36.75
 21
21.9445
  0
LINE
  8
0
 10
36.75
 20
21.9445
 11
36.5377
 21
22.2721
  0
LINE
  8
0
 10
36.5377
 20
22.2721
 11
34.6836
 21
24.2487
  0
LINE
  8
0
 10
34.6836
 20
24.2487
 11
32.6257
 21
26.4426
  0
LINE
  8
0
 10
32.6257
 20
26.4426
 11
29.6676
 21
29.4828
  0
LINE
  8
0
 10
29.6676
 20
29.4828
 11
27.6488
 21
29.4828
  0
LINE
  8
0
 10
27.6488
 20
29.4828
 11
27.5392
 21
29.4828
  0
LINE
  8
0
 10
27.5392
 20
29.4828
 11
12.7839
 21
29.4828
  0
LINE
  8
0
 10
12.7839
 20
29.4828
 11
8.84929
 21
37.7037
  0
LINE
  8
0
 10
8.84929
 20
37.7037
 11
7.47413
 21
40.5769
  0
LINE
  8
0
 10
7.47413
 20
40.5769
 11
6.62215
 21
41.4589
  0
LINE
  8
0
 10
6.62215
 20
41.4589
 11
6.51863
 21
41.4661
  0
LINE
  8
0
 10
6.51863
 20
41.4661
 11
6.51863
 21
41.4661
  0
LINE
  8
0
 10
6.51863
 20
41.4661
 11
6.38011
 21
41.4757
  0
LINE
  8
0
 10
6.38011
 20
41.4757
 11
6.2785
 21
41.4828
  0
LINE
  8
0
 10
6.2785
 20
41.4828
 11
6.2785
 21
41.4828
  0
LINE
  8
0
 10
6.2785
 20
41.4828
 11
1.77823
 21
41.4828
  0
LINE
  8
0
 10
1.77823
 20
41.4828
 11
1.7762
 21
41.4917
  0
LINE
  8
0
 10
1.7762
 20
41.4917
 11
1.76844
 21
41.5256
  0
LINE
  8
0
 10
1.76844
 20
41.5256
 11
1.74672
 21
41.5529
  0
LINE
  8
0
 10
1.74672
 20
41.5529
 11
0.588318
 21
43.0055
  0
LINE
  8
0
 10
0.588318
 20
43.0055
 11
-1.08561
 21
43.8116
  0
LINE
  8
0
 10
-1.08561
 20
43.8116
 11
-1.11701
 21
43.8267
  0
LINE
  8
0
 10
-1.11701
 20
43.8267
 11
-3.00978
 21
43.8267
  0
LINE
  8
0
 10
-3.00978
 20
43.8267
 11
-3.04118
 21
43.8116
  0
LINE
  8
0
 10
-3.04118
 20
43.8116
 11
-4.71511
 21
43.0055
  0
LINE
  8
0
 10
-4.71511
 20
43.0055
 11
-5.8735
 21
41.5529
  0
LINE
  8
0
 10
-5.8735
 20
41.5529
 11
-5.89523
 21
41.5256
  0
LINE
  8
0
 10
-5.89523
 20
41.5256
 11
-5.90299
 21
41.4917
  0
LINE
  8
0
 10
-5.90299
 20
41.4917
 11
-5.90502
 21
41.4828
  0
LINE
  8
0
 10
-5.90502
 20
41.4828
 11
-10.1114
 21
41.4828
  0
LINE
  8
0
 10
-10.1114
 20
41.4828
 11
-15.0359
 21
43.949
  0
LINE
  8
0
 10
-15.0359
 20
43.949
 11
-15.036
 21
43.949
  0
LINE
  8
0
 10
-15.036
 20
43.949
 11
-15.7423
 21
44.3028
  0
LINE
  8
0
 10
-15.7423
 20
44.3028
 11
-17.7932
 21
44.3028
  0
LINE
  8
0
 10
-17.7932
 20
44.3028
 11
-17.9174
 21
44.3028
  0
LINE
  8
0
 10
-17.9174
 20
44.3028
 11
-32.0929
 21
44.3028
  0
LINE
  8
0
 10
-32.0929
 20
44.3028
 11
-33.4286
 21
43.1103
  0
LINE
  8
0
 10
-33.4286
 20
43.1103
 11
-35.2518
 21
41.4828
  0
LINE
  8
0
 10
-35.2518
 20
41.4828
 11
-44.1819
 21
41.4828
  0
LINE
  8
0
 10
-44.1819
 20
41.4828
 11
-50.9013
 21
41.4828
  0
LINE
  8
0
 10
-50.9013
 20
41.4828
 11
-53.6957
 21
41.4828
  0
LINE
  8
0
 10
-53.6957
 20
41.4828
 11
-53.7271
 21
41.4828
  0
LINE
  8
0
 10
-53.7271
 20
41.4828
 11
-55.055
 21
41.4828
  0
LINE
  8
0
 10
-55.055
 20
41.4828
 11
-65.4613
 21
41.4828
  0
LINE
  8
0
 10
-65.4613
 20
41.4828
 11
-70.0637
 21
41.4828
  0
LINE
  8
0
 10
-70.0637
 20
41.4828
 11
-71.0482
 21
40.6199
  0
LINE
  8
0
 10
-71.0482
 20
40.6199
 11
-78.9047
 21
40.7015
  0
LINE
  8
0
 10
-78.9047
 20
40.7015
 11
-78.9842
 21
33.0508
  0
LINE
  8
0
 10
-78.9842
 20
33.0508
 11
-81.0166
 21
31.0184
  0
LINE
  8
0
 10
-81.0166
 20
31.0184
 11
-81.7519
 21
25.53
  0
LINE
  8
0
 10
-81.7519
 20
25.53
 11
-83.2683
 21
14.2113
  0
LINE
  8
0
 10
-83.2683
 20
14.2113
 11
-83.5104
 21
10.5334
  0
LINE
  8
0
 10
-83.5104
 20
10.5334
 11
-83.6278
 21
8.75
  0
LINE
  8
0
 10
-83.6278
 20
8.75
 11
-83.6278
 21
4.14639
  0
LINE
  8
0
 10
-83.6278
 20
4.14639
 11
-84.5242
 21
4.14639
  0
LINE
  8
0
 10
-84.5242
 20
4.14639
 11
-84.5556
 21
4.13127
  0
LINE
  8
0
 10
-84.5556
 20
4.13127
 11
-86.2295
 21
3.32514
  0
LINE
  8
0
 10
-86.2295
 20
3.32514
 11
-87.3879
 21
1.87256
  0
LINE
  8
0
 10
-87.3879
 20
1.87256
 11
-87.4097
 21
1.84532
  0
LINE
  8
0
 10
-87.4097
 20
1.84532
 11
-87.4174
 21
1.81134
  0
LINE
  8
0
 10
-87.4174
 20
1.81134
 11
-87.8308
 21
0
  0
LINE
  8
0
 10
-87.8308
 20
0
 11
-87.4174
 21
-1.81134
  0
LINE
  8
0
 10
-87.4174
 20
-1.81134
 11
-87.4097
 21
-1.84532
  0
LINE
  8
0
 10
-87.4097
 20
-1.84532
 11
-87.3879
 21
-1.87256
  0
LINE
  8
0
 10
-87.3879
 20
-1.87256
 11
-86.2295
 21
-3.32514
  0
LINE
  8
0
 10
-86.2295
 20
-3.32514
 11
-84.5556
 21
-4.13127
  0
LINE
  8
0
 10
-84.5556
 20
-4.13127
 11
-84.5242
 21
-4.14639
  0
LINE
  8
0
 10
-84.5242
 20
-4.14639
 11
-83.6278
 21
-4.14639
  0
LINE
  8
0
 10
-83.6278
 20
-4.14639
 11
-83.6278
 21
-8.75
  0
LINE
  8
0
 10
-83.6278
 20
-8.75
 11
-83.5104
 21
-10.5334
  0
LINE
  8
0
 10
-83.5104
 20
-10.5334
 11
-83.2683
 21
-14.2113
  0
LINE
  8
0
 10
-83.2683
 20
-14.2113
 11
-81.7519
 21
-25.53
  0
LINE
  8
0
 10
-81.7519
 20
-25.53
 11
-81.0166
 21
-31.0184
  0
LINE
  8
0
 10
-81.0166
 20
-31.0184
 11
-79.6959
 21
-34.2967
  0
LINE
  8
0
 10
-79.6959
 20
-34.2967
 11
-77.8158
 21
-38.9635
  0
LINE
  8
0
 10
-77.8158
 20
-38.9635
 11
-81.7552
 21
-42.2691
  0
LINE
  8
0
 10
-81.7552
 20
-42.2691
 11
-86.0693
 21
-45.889
  0
LINE
  8
0
 10
-86.0693
 20
-45.889
 11
-86.812
 21
-46.7947
  0
LINE
  8
0
 10
-86.812
 20
-46.7947
 11
-86.812
 21
-46.7948
  0
LINE
  8
0
 10
-86.812
 20
-46.7948
 11
-87.3252
 21
-47.4205
  0
LINE
  8
0
 10
-87.3252
 20
-47.4205
 11
-84.3565
 21
-54.8219
  0
LINE
  8
0
 10
-84.3565
 20
-54.8219
 11
-83.4458
 21
-57.0925
  0
LINE
  8
0
 10
-83.4458
 20
-57.0925
 11
-85.4939
 21
-59.714
  0
LINE
  8
0
 10
-85.4939
 20
-59.714
 11
-85.4941
 21
-59.7142
  0
LINE
  8
0
 10
-85.4941
 20
-59.7142
 11
-86.17
 21
-60.5793
  0
LINE
  8
0
 10
-86.17
 20
-60.5793
 11
-86.17
 21
-60.5793
  0
LINE
  8
0
 10
-86.17
 20
-60.5793
 11
-86.17
 21
-60.5793
  0
LINE
  8
0
 10
-86.17
 20
-60.5793
 11
-89.9849
 21
-67.4988
  0
LINE
  8
0
 10
-89.9849
 20
-67.4988
 11
-93.2131
 21
-73.3542
  0
LINE
  8
0
 10
-93.2131
 20
-73.3542
 11
-93.2131
 21
-73.3542
  0
LINE
  8
0
 10
-93.2131
 20
-73.3542
 11
-93.2728
 21
-73.4625
  0
LINE
  8
0
 10
-90.84
 20
-75.2083
 11
-80.7364
 21
-57.4239
  0
LINE
  8
0
 10
-80.7364
 20
-57.4239
 11
-80.7364
 21
-57.4239
  0
LINE
  8
0
 10
-80.7364
 20
-57.4239
 11
-80.7364
 21
-57.4239
  0
LINE
  8
0
 10
-80.7364
 20
-57.4239
 11
-80.7178
 21
-57.4001
  0
LINE
  8
0
 10
-80.7178
 20
-57.4001
 11
-80.4214
 21
-57.0206
  0
LINE
  8
0
 10
-80.4214
 20
-57.0206
 11
-80.4214
 21
-57.0206
  0
LINE
  8
0
 10
-80.4214
 20
-57.0206
 11
-80.3729
 21
-56.9586
  0
LINE
  8
0
 10
-80.3729
 20
-56.9586
 11
-80.3709
 21
-56.9561
  0
LINE
  8
0
 10
-80.3709
 20
-56.9561
 11
-83.3855
 21
-50.0634
  0
LINE
  8
0
 10
-83.3855
 20
-50.0634
 11
-84.4165
 21
-47.7061
  0
LINE
  8
0
 10
-84.4165
 20
-47.7061
 11
-81.9339
 21
-45.623
  0
LINE
  8
0
 10
-81.9339
 20
-45.623
 11
-81.9336
 21
-45.6228
  0
LINE
  8
0
 10
-81.9336
 20
-45.6228
 11
-75.7909
 21
-40.4684
  0
LINE
  8
0
 10
-75.7909
 20
-40.4684
 11
-75.237
 21
-39.793
  0
LINE
  8
0
 10
-75.237
 20
-39.793
 11
-74.535
 21
-38.937
  0
LINE
  8
0
 10
-74.535
 20
-38.937
 11
-74.535
 21
-38.937
  0
LINE
  8
0
 10
-74.535
 20
-38.937
 11
-75.6895
 21
-36.8242
  0
LINE
  8
0
 10
-75.6895
 20
-36.8242
 11
-78.7057
 21
-31.3044
  0
LINE
  8
0
 10
-78.7057
 20
-31.3044
 11
-71.0532
 21
-31.3839
  0
LINE
  8
0
 10
-71.0532
 20
-31.3839
 11
-70.3357
 21
37.6761
  0
LINE
  8
0
 10
-70.3357
 20
37.6761
 11
-68.5585
 21
38.5485
  0
LINE
  8
0
 10
-68.5585
 20
38.5485
 11
-57.0173
 21
38.5485
  0
LINE
  8
0
 10
-57.0173
 20
38.5485
 11
-53.6008
 21
38.5485
  0
LINE
  8
0
 10
-53.6008
 20
38.5485
 11
-50.7828
 21
38.5485
  0
LINE
  8
0
 10
-50.7828
 20
38.5485
 11
-49.6656
 21
38.5485
  0
LINE
  8
0
 10
-49.6656
 20
38.5485
 11
-38.7127
 21
38.5485
  0
LINE
  8
0
 10
-38.7127
 20
38.5485
 11
-38.6913
 21
38.5485
  0
LINE
  8
0
 10
-38.6913
 20
38.5485
 11
-33.9621
 21
38.5485
  0
LINE
  8
0
 10
-33.9621
 20
38.5485
 11
-32.1606
 21
40.2802
  0
LINE
  8
0
 10
-32.1606
 20
40.2802
 11
-31.0286
 21
41.3685
  0
LINE
  8
0
 10
-31.0286
 20
41.3685
 11
-22.9606
 21
41.3685
  0
LINE
  8
0
 10
-22.9606
 20
41.3685
 11
-14.8658
 21
41.3685
  0
LINE
  8
0
 10
-14.8658
 20
41.3685
 11
-11.7103
 21
39.7182
  0
LINE
  8
0
 10
-11.7103
 20
39.7182
 11
-9.47365
 21
38.5485
  0
LINE
  8
0
 10
-9.47365
 20
38.5485
 11
-6.05807
 21
38.5485
  0
LINE
  8
0
 10
-6.05807
 20
38.5485
 11
-5.90299
 21
37.869
  0
LINE
  8
0
 10
-5.90299
 20
37.869
 11
-5.89523
 21
37.835
  0
LINE
  8
0
 10
-5.89523
 20
37.835
 11
-5.8735
 21
37.8078
  0
LINE
  8
0
 10
-5.8735
 20
37.8078
 11
-4.71511
 21
36.3552
  0
LINE
  8
0
 10
-4.71511
 20
36.3552
 11
-3.04118
 21
35.5491
  0
LINE
  8
0
 10
-3.04118
 20
35.5491
 11
-3.00978
 21
35.5339
  0
LINE
  8
0
 10
-3.00978
 20
35.5339
 11
-1.11701
 21
35.5339
  0
LINE
  8
0
 10
-1.11701
 20
35.5339
 11
-1.08561
 21
35.5491
  0
LINE
  8
0
 10
-1.08561
 20
35.5491
 11
0.588318
 21
36.3552
  0
LINE
  8
0
 10
0.588318
 20
36.3552
 11
1.74672
 21
37.8078
  0
LINE
  8
0
 10
1.74672
 20
37.8078
 11
1.76844
 21
37.835
  0
LINE
  8
0
 10
1.76844
 20
37.835
 11
1.7762
 21
37.869
  0
LINE
  8
0
 10
1.7762
 20
37.869
 11
1.93128
 21
38.5485
  0
LINE
  8
0
 10
1.93128
 20
38.5485
 11
6.76606
 21
38.5485
  0
LINE
  8
0
 10
6.76606
 20
38.5485
 11
7.16604
 21
37.866
  0
LINE
  8
0
 10
7.16604
 20
37.866
 11
12.4375
 21
27.4543
  0
LINE
  8
0
 10
12.4375
 20
27.4543
 11
12.781
 21
26.9244
  0
LINE
  8
0
 10
12.781
 20
26.9244
 11
13.0246
 21
26.5485
  0
LINE
  8
0
 10
13.0246
 20
26.5485
 11
20.136
 21
26.5485
  0
LINE
  8
0
 10
20.136
 20
26.5485
 11
30.0618
 21
26.5485
  0
LINE
  8
0
 10
30.0618
 20
26.5485
 11
31.4328
 21
25.1394
  0
LINE
  8
0
 10
31.4328
 20
25.1394
 11
32.7623
 21
23.7731
  0
LINE
  8
0
 10
32.7623
 20
23.7731
 11
33.9654
 21
22.2883
  0
LINE
  8
0
 10
33.9654
 20
22.2883
 11
33.9654
 21
22.2883
  0
LINE
  8
0
 10
33.9654
 20
22.2883
 11
33.7845
 21
20.1065
  0
LINE
  8
0
 10
33.7845
 20
20.1065
 11
32.4949
 21
4.54993
  0
LINE
  8
0
 10
32.4949
 20
4.54993
 11
32.4949
 21
4.54993
  0
LINE
  8
0
 10
32.4949
 20
4.54993
 11
32.4917
 21
4.51105
  0
LINE
  8
0
 10
32.4917
 20
4.51105
 11
32.4863
 21
4.4468
  0
LINE
  8
0
 10
32.4863
 20
4.4468
 11
32.3945
 21
2.26483
  0
LINE
  8
0
 10
32.3945
 20
2.26483
 11
32.1603
 21
-3.3
  0
LINE
  8
0
 10
32.1603
 20
-3.3
 11
32.1603
 21
-7.89736
  0
LINE
  8
0
 10
32.1603
 20
-7.89736
 11
30.5458
 21
-8.67486
  0
LINE
  8
0
 10
30.5458
 20
-8.67486
 11
29.3874
 21
-10.1274
  0
LINE
  8
0
 10
29.3874
 20
-10.1274
 11
29.3657
 21
-10.1547
  0
LINE
  8
0
 10
29.3657
 20
-10.1547
 11
29.3579
 21
-10.1887
  0
LINE
  8
0
 10
29.3579
 20
-10.1887
 11
28.9445
 21
-12
  0
LINE
  8
0
 10
28.9445
 20
-12
 11
29.3579
 21
-13.8113
  0
LINE
  8
0
 10
29.3579
 20
-13.8113
 11
29.3657
 21
-13.8453
  0
LINE
  8
0
 10
29.3657
 20
-13.8453
 11
29.3874
 21
-13.8726
  0
LINE
  8
0
 10
29.3874
 20
-13.8726
 11
30.5458
 21
-15.3251
  0
LINE
  8
0
 10
30.5458
 20
-15.3251
 11
32.1603
 21
-16.1026
  0
LINE
  8
0
 10
32.1603
 20
-16.1026
 11
32.1603
 21
-20.7
  0
LINE
  8
0
 10
32.1603
 20
-20.7
 11
32.3945
 21
-26.2648
  0
LINE
  8
0
 10
32.3945
 20
-26.2648
 11
32.4863
 21
-28.4468
  0
LINE
  8
0
 10
32.4863
 20
-28.4468
 11
32.4917
 21
-28.5111
  0
LINE
  8
0
 10
32.4917
 20
-28.5111
 11
32.4949
 21
-28.5499
  0
LINE
  8
0
 10
32.4949
 20
-28.5499
 11
32.4949
 21
-28.5499
  0
LINE
  8
0
 10
32.4949
 20
-28.5499
 11
33.7845
 21
-44.1065
  0
LINE
  8
0
 10
33.7845
 20
-44.1065
 11
33.9654
 21
-46.2883
  0
LINE
  8
0
 10
33.9654
 20
-46.2883
 11
33.9654
 21
-46.2883
  0
LINE
  8
0
 10
33.9654
 20
-46.2883
 11
32.7623
 21
-47.7731
  0
LINE
  8
0
 10
32.7623
 20
-47.7731
 11
31.4328
 21
-49.1394
  0
LINE
  8
0
 10
31.4328
 20
-49.1394
 11
30.0618
 21
-50.5485
  0
LINE
  8
0
 10
30.0618
 20
-50.5485
 11
20.136
 21
-50.5485
  0
LINE
  8
0
 10
20.136
 20
-50.5485
 11
13.0246
 21
-50.5485
  0
LINE
  8
0
 10
13.0246
 20
-50.5485
 11
12.781
 21
-50.9244
  0
LINE
  8
0
 10
12.781
 20
-50.9244
 11
12.4375
 21
-51.4543
  0
LINE
  8
0
 10
12.4375
 20
-51.4543
 11
12.4408
 21
-51.5242
  0
LINE
  8
0
 10
12.4408
 20
-51.5242
 11
12.5004
 21
-52.8051
  0
LINE
  8
0
 10
12.5004
 20
-52.8051
 11
12.5274
 21
-53.3862
  0
LINE
  8
0
 10
12.5274
 20
-53.3862
 11
12.5306
 21
-53.4536
  0
LINE
  8
0
 10
12.5306
 20
-53.4536
 11
12.5319
 21
-53.4828
  0
LINE
  8
0
 10
12.5319
 20
-53.4828
 11
12.5319
 21
-53.4828
  0
LINE
  8
0
 10
12.5319
 20
-53.4828
 11
12.6007
 21
-53.4828
  0
LINE
  8
0
 10
12.6007
 20
-53.4828
 11
16.4304
 21
-53.4828
  0
LINE
  8
0
 10
16.4304
 20
-53.4828
 11
15.5997
 21
-55.2924
  0
LINE
  8
0
 10
15.5997
 20
-55.2924
 11
13.0393
 21
-60.8699
  0
LINE
  8
0
 10
13.0393
 20
-60.8699
 11
6.64344
 21
-60.8699
  0
LINE
  8
0
 10
6.64344
 20
-60.8699
 11
5.07328
 21
-60.8699
  0
LINE
  8
0
 10
5.07328
 20
-60.8699
 11
4.08558
 21
-59.6314
  0
LINE
  8
0
 10
4.08558
 20
-59.6314
 11
2.41165
 21
-58.8253
  0
LINE
  8
0
 10
2.41165
 20
-58.8253
 11
2.38026
 21
-58.8101
  0
LINE
  8
0
 10
2.38026
 20
-58.8101
 11
0.487486
 21
-58.8101
  0
LINE
  8
0
 10
0.487486
 20
-58.8101
 11
0.456089
 21
-58.8253
  0
LINE
  8
0
 10
0.456089
 20
-58.8253
 11
-1.21784
 21
-59.6314
  0
LINE
  8
0
 10
-1.21784
 20
-59.6314
 11
-2.20554
 21
-60.8699
  0
LINE
  8
0
 10
-2.20554
 20
-60.8699
 11
-6.08605
 21
-60.8699
  0
LINE
  8
0
 10
-6.08605
 20
-60.8699
 11
-10.0103
 21
-61.9753
  0
LINE
  8
0
 10
-10.0103
 20
-61.9753
 11
-18.3902
 21
-64.3357
  0
LINE
  8
0
 10
-18.3902
 20
-64.3357
 11
-18.3902
 21
-64.3357
  0
LINE
  8
0
 10
-18.3902
 20
-64.3357
 11
-27.7542
 21
-70.421
  0
LINE
  8
0
 10
-27.7542
 20
-70.421
 11
-27.7545
 21
-70.4212
  0
LINE
  8
0
 10
-27.7545
 20
-70.4212
 11
-32.1398
 21
-73.271
  0
LINE
  8
0
 10
-32.1398
 20
-73.271
 11
-33.0149
 21
-73.939
  0
LINE
  8
0
 10
-33.0149
 20
-73.939
 11
-33.7141
 21
-74.4727
  0
LINE
  8
0
 10
-33.7141
 20
-74.4727
 11
-33.736
 21
-74.497
  0
LINE
  8
0
 10
-33.736
 20
-74.497
 11
-39.5424
 21
-80.9456
  0
LINE
  8
0
 10
-39.5424
 20
-80.9456
 11
-43.3463
 21
-85.1703
  0
LINE
  8
0
 10
-43.3463
 20
-85.1703
 11
-43.3463
 21
-85.1703
  0
LINE
  8
0
 10
-43.3463
 20
-85.1703
 11
-43.3665
 21
-85.1928
  0
LINE
  8
0
 10
-43.3665
 20
-85.1928
 11
-42.6985
 21
-88.2928
  0
LINE
  8
0
 10
-42.6985
 20
-88.2928
 11
-42.3539
 21
-89.8924
  0
LINE
  8
0
 10
-42.3539
 20
-89.8924
 11
-44.9583
 21
-93.477
  0
LINE
  8
0
 10
-44.9583
 20
-93.477
 11
-49.9997
 21
-96.8168
  0
LINE
  8
0
 10
-49.9997
 20
-96.8168
 11
-56.2541
 21
-100.96
  0
LINE
  8
0
 10
-56.2541
 20
-100.96
 11
-58.9148
 21
-100.996
  0
LINE
  8
0
 10
-58.9148
 20
-100.996
 11
-61.6883
 21
-98.5697
  0
LINE
  8
0
 10
-61.6883
 20
-98.5697
 11
-72.1896
 21
-89.3824
  0
LINE
  8
0
 10
-72.1896
 20
-89.3824
 11
-72.2536
 21
-89.3359
  0
LINE
  8
0
 10
-72.2536
 20
-89.3359
 11
-72.3372
 21
-89.2752
  0
LINE
  8
0
 10
-72.3372
 20
-89.2752
 11
-72.3704
 21
-89.2552
  0
LINE
  8
0
 10
-72.3704
 20
-89.2552
 11
-77.3468
 21
-87.8084
  0
LINE
  8
0
 10
-77.3468
 20
-87.8084
 11
-77.3468
 21
-87.8084
  0
LINE
  8
0
 10
-77.3468
 20
-87.8084
 11
-87.8629
 21
-79.1953
  0
LINE
  8
0
 10
-87.8629
 20
-79.1953
 11
-90.677
 21
-76.8904
  0
LINE
  8
0
 10
-90.677
 20
-76.8904
 11
-90.84
 21
-75.2083
  0
LINE
  8
0
 10
-85.2778
 20
0
 11
-84.4278
 21
1.47224
  0
LINE
  8
0
 10
-84.4278
 20
1.47224
 11
-82.7278
 21
1.47224
  0
LINE
  8
0
 10
-82.7278
 20
1.47224
 11
-81.8778
 21
0
  0
LINE
  8
0
 10
-81.8778
 20
0
 11
-82.7278
 21
-1.47224
  0
LINE
  8
0
 10
-82.7278
 20
-1.47224
 11
-84.4278
 21
-1.47224
  0
LINE
  8
0
 10
-84.4278
 20
-1.47224
 11
-85.2778
 21
0
  0
LINE
  8
0
 10
-81.5278
 20
-8.65
 11
-81.5278
 21
-3.61491
  0
LINE
  8
0
 10
-81.5278
 20
-3.61491
 11
-80.9261
 21
-3.32514
  0
LINE
  8
0
 10
-80.9261
 20
-3.32514
 11
-79.7677
 21
-1.87256
  0
LINE
  8
0
 10
-79.7677
 20
-1.87256
 11
-79.746
 21
-1.84532
  0
LINE
  8
0
 10
-79.746
 20
-1.84532
 11
-79.7382
 21
-1.81134
  0
LINE
  8
0
 10
-79.7382
 20
-1.81134
 11
-79.3277
 21
-0.0126703
  0
LINE
  8
0
 10
-79.3277
 20
-0.0126703
 11
-79.5961
 21
-25.8466
  0
LINE
  8
0
 10
-79.5961
 20
-25.8466
 11
-80.575
 21
-18.5397
  0
LINE
  8
0
 10
-80.575
 20
-18.5397
 11
-81.1683
 21
-14.1113
  0
LINE
  8
0
 10
-81.1683
 20
-14.1113
 11
-81.4224
 21
-10.252
  0
LINE
  8
0
 10
-81.4224
 20
-10.252
 11
-81.5278
 21
-8.65
  0
LINE
  8
0
 10
-81.5278
 20
3.61491
 11
-81.5278
 21
8.65
  0
LINE
  8
0
 10
-81.5278
 20
8.65
 11
-81.4224
 21
10.252
  0
LINE
  8
0
 10
-81.4224
 20
10.252
 11
-81.1683
 21
14.1113
  0
LINE
  8
0
 10
-81.1683
 20
14.1113
 11
-80.575
 21
18.5397
  0
LINE
  8
0
 10
-80.575
 20
18.5397
 11
-79.0139
 21
30.1921
  0
LINE
  8
0
 10
-79.0139
 20
30.1921
 11
-79.3275
 21
0.0115671
  0
LINE
  8
0
 10
-79.3275
 20
0.0115671
 11
-79.7382
 21
1.81134
  0
LINE
  8
0
 10
-79.7382
 20
1.81134
 11
-79.746
 21
1.84532
  0
LINE
  8
0
 10
-79.746
 20
1.84532
 11
-79.7677
 21
1.87256
  0
LINE
  8
0
 10
-79.7677
 20
1.87256
 11
-80.9261
 21
3.32514
  0
LINE
  8
0
 10
-80.9261
 20
3.32514
 11
-81.5278
 21
3.61491
  0
LINE
  8
0
 10
-3.76339
 20
39.6803
 11
-2.91339
 21
41.1526
  0
LINE
  8
0
 10
-2.91339
 20
41.1526
 11
-1.2134
 21
41.1526
  0
LINE
  8
0
 10
-1.2134
 20
41.1526
 11
-0.363395
 21
39.6803
  0
LINE
  8
0
 10
-0.363395
 20
39.6803
 11
-1.2134
 21
38.2081
  0
LINE
  8
0
 10
-1.2134
 20
38.2081
 11
-2.91339
 21
38.2081
  0
LINE
  8
0
 10
-2.91339
 20
38.2081
 11
-3.76339
 21
39.6803
  0
LINE
  8
0
 10
-0.266129
 20
-62.9565
 11
0.583871
 21
-61.4843
  0
LINE
  8
0
 10
0.583871
 20
-61.4843
 11
2.28387
 21
-61.4843
  0
LINE
  8
0
 10
2.28387
 20
-61.4843
 11
3.13387
 21
-62.9565
  0
LINE
  8
0
 10
3.13387
 20
-62.9565
 11
2.28387
 21
-64.4288
  0
LINE
  8
0
 10
2.28387
 20
-64.4288
 11
0.583871
 21
-64.4288
  0
LINE
  8
0
 10
0.583871
 20
-64.4288
 11
-0.266129
 21
-62.9565
  0
LINE
  8
0
 10
31.4975
 20
-12
 11
32.3475
 21
-10.5278
  0
LINE
  8
0
 10
32.3475
 20
-10.5278
 11
34.0475
 21
-10.5278
  0
LINE
  8
0
 10
34.0475
 20
-10.5278
 11
34.8975
 21
-12
  0
LINE
  8
0
 10
34.8975
 20
-12
 11
34.0475
 21
-13.4722
  0
LINE
  8
0
 10
34.0475
 20
-13.4722
 11
32.3475
 21
-13.4722
  0
LINE
  8
0
 10
32.3475
 20
-13.4722
 11
31.4975
 21
-12
  0
ENDSEC
  0
SECTION
  2
OBJECTS
  0
DICTIONARY
  0
ENDSEC
  0
EOF
