  0
SECTION
  2
HEADER
  9
$ACADVER
  1
AC1027
  9
$ACADMAINTVER
 70
105
  9
$DWGCODEPAGE
  3
ANSI_1252
  9
$LASTSAVEDBY
  1
ezdxf
  9
$REQUIREDVERSIONS
160
0
  9
$INSBASE
 10
0.0
 20
0.0
 30
0.0
  9
$EXTMIN
 10
-100
 20
-100
 30
-100
  9
$EXTMAX
 10
100
 20
100
 30
100
  9
$LIMMIN
 10
0.0
 20
0.0
  9
$LIMMAX
 10
420.0
 20
297.0
  9
$ORTHOMODE
 70
0
  9
$REGENMODE
 70
1
  9
$FILLMODE
 70
1
  9
$QTEXTMODE
 70
0
  9
$MIRRTEXT
 70
1
  9
$LTSCALE
 40
1.0
  9
$ATTMODE
 70
1
  9
$TEXTSIZE
 40
2.5
  9
$TRACEWID
 40
1.0
  9
$TEXTSTYLE
  7
Standard
  9
$CLAYER
  8
0
  9
$CELTYPE
  6
ByLayer
  9
$CECOLOR
 62
256
  9
$CELTSCALE
 40
1.0
  9
$DISPSILH
 70
0
  9
$DIMSCALE
 40
1.0
  9
$DIMASZ
 40
2.5
  9
$DIMEXO
 40
0.625
  9
$DIMDLI
 40
3.75
  9
$DIMRND
 40
0.0
  9
$DIMDLE
 40
0.0
  9
$DIMEXE
 40
1.25
  9
$DIMTP
 40
0.0
  9
$DIMTM
 40
0.0
  9
$DIMTXT
 40
2.5
  9
$DIMCEN
 40
2.5
  9
$DIMTSZ
 40
0.0
  9
$DIMTOL
 70
0
  9
$DIMLIM
 70
0
  9
$DIMTIH
 70
0
  9
$DIMTOH
 70
0
  9
$DIMSE1
 70
0
  9
$DIMSE2
 70
0
  9
$DIMTAD
 70
1
  9
$DIMZIN
 70
8
  9
$DIMBLK
  1

  9
$DIMASO
 70
1
  9
$DIMSHO
 70
1
  9
$DIMPOST
  1

  9
$DIMAPOST
  1

  9
$DIMALT
 70
0
  9
$DIMALTD
 70
3
  9
$DIMALTF
 40
0.03937007874
  9
$DIMLFAC
 40
1.0
  9
$DIMTOFL
 70
1
  9
$DIMTVP
 40
0.0
  9
$DIMTIX
 70
0
  9
$DIMSOXD
 70
0
  9
$DIMSAH
 70
0
  9
$DIMBLK1
  1

  9
$DIMBLK2
  1

  9
$DIMSTYLE
  2
ISO-25
  9
$DIMCLRD
 70
0
  9
$DIMCLRE
 70
0
  9
$DIMCLRT
 70
0
  9
$DIMTFAC
 40
1.0
  9
$DIMGAP
 40
0.625
  9
$DIMJUST
 70
0
  9
$DIMSD1
 70
0
  9
$DIMSD2
 70
0
  9
$DIMTOLJ
 70
0
  9
$DIMTZIN
 70
8
  9
$DIMALTZ
 70
0
  9
$DIMALTTZ
 70
0
  9
$DIMUPT
 70
0
  9
$DIMDEC
 70
2
  9
$DIMTDEC
 70
2
  9
$DIMALTU
 70
2
  9
$DIMALTTD
 70
3
  9
$DIMTXSTY
  7
Standard
  9
$DIMAUNIT
 70
0
  9
$DIMADEC
 70
0
  9
$DIMALTRND
 40
0.0
  9
$DIMAZIN
 70
0
  9
$DIMDSEP
 70
44
  9
$DIMATFIT
 70
3
  9
$DIMFRAC
 70
0
  9
$DIMLDRBLK
  1

  9
$DIMLUNIT
 70
2
  9
$DIMLWD
 70
-2
  9
$DIMLWE
 70
-2
  9
$DIMTMOVE
 70
0
  9
$DIMFXL
 40
1.0
  9
$DIMFXLON
 70
0
  9
$DIMJOGANG
 40
0.785398163397
  9
$DIMTFILL
 70
0
  9
$DIMTFILLCLR
 70
0
  9
$DIMARCSYM
 70
0
  9
$DIMLTYPE
  6

  9
$DIMLTEX1
  6

  9
$DIMLTEX2
  6

  9
$DIMTXTDIRECTION
 70
0
  9
$LUNITS
 70
2
  9
$LUPREC
 70
4
  9
$SKETCHINC
 40
1.0
  9
$FILLETRAD
 40
10.0
  9
$AUNITS
 70
0
  9
$AUPREC
 70
2
  9
$MENU
  1
.
  9
$ELEVATION
 40
0.0
  9
$PELEVATION
 40
0.0
  9
$THICKNESS
 40
0.0
  9
$LIMCHECK
 70
0
  9
$CHAMFERA
 40
0.0
  9
$CHAMFERB
 40
0.0
  9
$CHAMFERC
 40
0.0
  9
$CHAMFERD
 40
0.0
  9
$SKPOLY
 70
0
  9
$TDCREATE
 40
2459149.6979282405
  9
$TDUCREATE
 40
2458532.153996898
  9
$TDUPDATE
 40
2459149.6979282405
  9
$TDUUPDATE
 40
2458532.1544311
  9
$TDINDWG
 40
0.0
  9
$TDUSRTIMER
 40
0.0
  9
$USRTIMER
 70
1
  9
$ANGBASE
 50
0.0
  9
$ANGDIR
 70
0
  9
$PDMODE
 70
0
  9
$PDSIZE
 40
0.0
  9
$PLINEWID
 40
0.0
  9
$SPLFRAME
 70
0
  9
$SPLINETYPE
 70
6
  9
$SPLINESEGS
 70
8
  9
$HANDSEED
  5
BB
  9
$SURFTAB1
 70
6
  9
$SURFTAB2
 70
6
  9
$SURFTYPE
 70
6
  9
$SURFU
 70
6
  9
$SURFV
 70
6
  9
$UCSBASE
  2

  9
$UCSNAME
  2

  9
$UCSORG
 10
0.0
 20
0.0
 30
0.0
  9
$UCSXDIR
 10
1.0
 20
0.0
 30
0.0
  9
$UCSYDIR
 10
0.0
 20
1.0
 30
0.0
  9
$UCSORTHOREF
  2

  9
$UCSORTHOVIEW
 70
0
  9
$UCSORGTOP
 10
0.0
 20
0.0
 30
0.0
  9
$UCSORGBOTTOM
 10
0.0
 20
0.0
 30
0.0
  9
$UCSORGLEFT
 10
0.0
 20
0.0
 30
0.0
  9
$UCSORGRIGHT
 10
0.0
 20
0.0
 30
0.0
  9
$UCSORGFRONT
 10
0.0
 20
0.0
 30
0.0
  9
$UCSORGBACK
 10
0.0
 20
0.0
 30
0.0
  9
$PUCSBASE
  2

  9
$PUCSNAME
  2

  9
$PUCSORG
 10
0.0
 20
0.0
 30
0.0
  9
$PUCSXDIR
 10
1.0
 20
0.0
 30
0.0
  9
$PUCSYDIR
 10
0.0
 20
1.0
 30
0.0
  9
$PUCSORTHOREF
  2

  9
$PUCSORTHOVIEW
 70
0
  9
$PUCSORGTOP
 10
0.0
 20
0.0
 30
0.0
  9
$PUCSORGBOTTOM
 10
0.0
 20
0.0
 30
0.0
  9
$PUCSORGLEFT
 10
0.0
 20
0.0
 30
0.0
  9
$PUCSORGRIGHT
 10
0.0
 20
0.0
 30
0.0
  9
$PUCSORGFRONT
 10
0.0
 20
0.0
 30
0.0
  9
$PUCSORGBACK
 10
0.0
 20
0.0
 30
0.0
  9
$USERI1
 70
0
  9
$USERI2
 70
0
  9
$USERI3
 70
0
  9
$USERI4
 70
0
  9
$USERI5
 70
0
  9
$USERR1
 40
0.0
  9
$USERR2
 40
0.0
  9
$USERR3
 40
0.0
  9
$USERR4
 40
0.0
  9
$USERR5
 40
0.0
  9
$WORLDVIEW
 70
1
  9
$SHADEDGE
 70
3
  9
$SHADEDIF
 70
70
  9
$TILEMODE
 70
1
  9
$MAXACTVP
 70
64
  9
$PINSBASE
 10
0.0
 20
0.0
 30
0.0
  9
$PLIMCHECK
 70
0
  9
$PEXTMIN
 10
1e+20
 20
1e+20
 30
1e+20
  9
$PEXTMAX
 10
-1e+20
 20
-1e+20
 30
-1e+20
  9
$PLIMMIN
 10
0.0
 20
0.0
  9
$PLIMMAX
 10
420.0
 20
297.0
  9
$UNITMODE
 70
0
  9
$VISRETAIN
 70
1
  9
$PLINEGEN
 70
0
  9
$PSLTSCALE
 70
1
  9
$TREEDEPTH
 70
3020
  9
$CMLSTYLE
  2
Standard
  9
$CMLJUST
 70
0
  9
$CMLSCALE
 40
20.0
  9
$PROXYGRAPHICS
 70
1
  9
$MEASUREMENT
 70
1
  9
$CELWEIGHT
370
-1
  9
$ENDCAPS
280
0
  9
$JOINSTYLE
280
0
  9
$LWDISPLAY
290
0
  9
$INSUNITS
 70
6
  9
$HYPERLINKBASE
  1

  9
$STYLESHEET
  1

  9
$XEDIT
290
1
  9
$CEPSNTYPE
380
0
  9
$PSTYLEMODE
290
1
  9
$FINGERPRINTGUID
  2
1E353B4C-17CC-11EB-A396-40EC999B614D
  9
$VERSIONGUID
  2
1E36E964-17CC-11EB-8F2C-40EC999B614D
  9
$EXTNAMES
290
1
  9
$PSVPSCALE
 40
0.0
  9
$OLESTARTUP
290
0
  9
$SORTENTS
280
127
  9
$INDEXCTL
280
0
  9
$HIDETEXT
280
1
  9
$XCLIPFRAME
280
2
  9
$HALOGAP
280
0
  9
$OBSCOLOR
 70
257
  9
$OBSLTYPE
280
0
  9
$INTERSECTIONDISPLAY
280
0
  9
$INTERSECTIONCOLOR
 70
257
  9
$DIMASSOC
280
2
  9
$PROJECTNAME
  1

  9
$CAMERADISPLAY
290
0
  9
$LENSLENGTH
 40
50.0
  9
$CAMERAHEIGHT
 40
0.0
  9
$STEPSPERSEC
 40
24.0
  9
$STEPSIZE
 40
100.0
  9
$3DDWFPREC
 40
2.0
  9
$PSOLWIDTH
 40
0.005
  9
$PSOLHEIGHT
 40
0.08
  9
$LOFTANG1
 40
1.570796326795
  9
$LOFTANG2
 40
1.570796326795
  9
$LOFTMAG1
 40
0.0
  9
$LOFTMAG2
 40
0.0
  9
$LOFTPARAM
 70
7
  9
$LOFTNORMALS
280
1
  9
$LATITUDE
 40
37.795
  9
$LONGITUDE
 40
-122.394
  9
$NORTHDIRECTION
 40
0.0
  9
$TIMEZONE
 70
-8000
  9
$LIGHTGLYPHDISPLAY
280
1
  9
$TILEMODELIGHTSYNCH
280
1
  9
$CMATERIAL
347
20
  9
$SOLIDHIST
280
0
  9
$SHOWHIST
280
1
  9
$DWFFRAME
280
2
  9
$DGNFRAME
280
2
  9
$REALWORLDSCALE
290
1
  9
$INTERFERECOLOR
 62
256
  9
$CSHADOW
280
0
  9
$SHADOWPLANELOCATION
 40
0.0
  0
ENDSEC
  0
SECTION
  2
CLASSES
  0
CLASS
  1
ACDBDICTIONARYWDFLT
  2
AcDbDictionaryWithDefault
  3
ObjectDBX Classes
 90
0
 91
0
280
0
281
0
  0
CLASS
  1
SUN
  2
AcDbSun
  3
SCENEOE
 90
1153
 91
0
280
0
281
0
  0
CLASS
  1
VISUALSTYLE
  2
AcDbVisualStyle
  3
ObjectDBX Classes
 90
4095
 91
0
280
0
281
0
  0
CLASS
  1
MATERIAL
  2
AcDbMaterial
  3
ObjectDBX Classes
 90
1153
 91
0
280
0
281
0
  0
CLASS
  1
SCALE
  2
AcDbScale
  3
ObjectDBX Classes
 90
1153
 91
0
280
0
281
0
  0
CLASS
  1
TABLESTYLE
  2
AcDbTableStyle
  3
ObjectDBX Classes
 90
4095
 91
0
280
0
281
0
  0
CLASS
  1
MLEADERSTYLE
  2
AcDbMLeaderStyle
  3
ACDB_MLEADERSTYLE_CLASS
 90
4095
 91
0
280
0
281
0
  0
CLASS
  1
DICTIONARYVAR
  2
AcDbDictionaryVar
  3
ObjectDBX Classes
 90
0
 91
0
280
0
281
0
  0
CLASS
  1
CELLSTYLEMAP
  2
AcDbCellStyleMap
  3
ObjectDBX Classes
 90
1152
 91
0
280
0
281
0
  0
CLASS
  1
MENTALRAYRENDERSETTINGS
  2
AcDbMentalRayRenderSettings
  3
SCENEOE
 90
1024
 91
0
280
0
281
0
  0
CLASS
  1
ACDBDETAILVIEWSTYLE
  2
AcDbDetailViewStyle
  3
ObjectDBX Classes
 90
1025
 91
0
280
0
281
0
  0
CLASS
  1
ACDBSECTIONVIEWSTYLE
  2
AcDbSectionViewStyle
  3
ObjectDBX Classes
 90
1025
 91
0
280
0
281
0
  0
CLASS
  1
RASTERVARIABLES
  2
AcDbRasterVariables
  3
ISM
 90
0
 91
0
280
0
281
0
  0
CLASS
  1
LAYOUT
  2
AcDbLayout
  3
ObjectDBX Classes
 90
0
 91
0
280
0
281
0
  0
CLASS
  1
ACDBPLACEHOLDER
  2
AcDbPlaceHolder
  3
ObjectDBX Classes
 90
0
 91
0
280
0
281
0
  0
ENDSEC
  0
SECTION
  2
TABLES
  0
TABLE
  2
VPORT
  5
8
330
0
100
AcDbSymbolTable
 70
1
  0
VPORT
  5
23
330
8
100
AcDbSymbolTableRecord
100
AcDbViewportTableRecord
  2
*Active
 70
0
 10
0.0
 20
0.0
 11
1.0
 21
1.0
 12
70.0
 22
50.0
 13
0.0
 23
0.0
 14
0.5
 24
0.5
 15
0.5
 25
0.5
 16
0.0
 26
0.0
 36
1.0
 17
0.0
 27
0.0
 37
0.0
 40
1.0
 41
1.34
 42
50.0
 43
0.0
 44
0.0
 50
0.0
 51
0.0
 71
0
 72
1000
 73
1
 74
3
 75
0
 76
0
 77
0
 78
0
281
0
 65
0
146
0.0
  0
ENDTAB
  0
TABLE
  2
LTYPE
  5
2
330
0
100
AcDbSymbolTable
 70
3
  0
LTYPE
  5
24
330
2
100
AcDbSymbolTableRecord
100
AcDbLinetypeTableRecord
  2
ByBlock
 70
0
  3

 72
65
 73
0
 40
0.0
  0
LTYPE
  5
25
330
2
100
AcDbSymbolTableRecord
100
AcDbLinetypeTableRecord
  2
ByLayer
 70
0
  3

 72
65
 73
0
 40
0.0
  0
LTYPE
  5
26
330
2
100
AcDbSymbolTableRecord
100
AcDbLinetypeTableRecord
  2
Continuous
 70
0
  3

 72
65
 73
0
 40
0.0
  0
ENDTAB
  0
TABLE
  2
LAYER
  5
1
330
0
100
AcDbSymbolTable
 70
2
  0
LAYER
  5
27
330
1
100
AcDbSymbolTableRecord
100
AcDbLayerTableRecord
  2
0
 70
0
 62
7
  6
Continuous
370
-3
390
13
347
21
  0
LAYER
  5
28
330
1
100
AcDbSymbolTableRecord
100
AcDbLayerTableRecord
  2
Defpoints
 70
0
 62
7
  6
Continuous
290
0
370
-3
390
13
347
21
  0
ENDTAB
  0
TABLE
  2
STYLE
  5
5
330
0
100
AcDbSymbolTable
 70
1
  0
STYLE
  5
29
330
5
100
AcDbSymbolTableRecord
100
AcDbTextStyleTableRecord
  2
Standard
 70
0
 40
0.0
 41
1.0
 50
0.0
 71
0
 42
2.5
  3
txt
  4

  0
ENDTAB
  0
TABLE
  2
VIEW
  5
7
330
0
100
AcDbSymbolTable
 70
0
  0
ENDTAB
  0
TABLE
  2
UCS
  5
6
330
0
100
AcDbSymbolTable
 70
0
  0
ENDTAB
  0
TABLE
  2
APPID
  5
3
330
0
100
AcDbSymbolTable
 70
2
  0
APPID
  5
2A
330
3
100
AcDbSymbolTableRecord
100
AcDbRegAppTableRecord
  2
ACAD
 70
0
  0
APPID
  5
BA
330
3
100
AcDbSymbolTableRecord
100
AcDbRegAppTableRecord
  2
HATCHBACKGROUNDCOLOR
 70
0
  0
ENDTAB
  0
TABLE
  2
DIMSTYLE
  5
4
330
0
100
AcDbSymbolTable
 70
1
100
AcDbDimStyleTable
  0
DIMSTYLE
105
2B
330
4
100
AcDbSymbolTableRecord
100
AcDbDimStyleTableRecord
  2
Standard
 70
0
 40
1.0
 41
2.5
 42
0.625
 43
3.75
 44
1.25
 45
0.0
 46
0.0
 47
0.0
 48
0.0
 49
2.5
140
2.5
141
2.5
142
0.0
143
0.03937007874
144
1.0
145
0.0
146
1.0
147
0.625
148
0.0
 69
0
 70
0
 71
0
 72
0
 73
0
 74
0
 75
0
 76
0
 77
1
 78
8
 79
0
170
0
171
3
172
1
173
0
174
0
175
0
176
0
177
0
178
0
179
0
271
0
272
2
273
2
274
3
275
0
276
0
277
2
278
44
279
0
280
0
281
0
282
0
283
0
284
8
285
0
286
0
288
0
289
3
290
0
371
-2
372
-2
  0
ENDTAB
  0
TABLE
  2
BLOCK_RECORD
  5
9
330
0
100
AcDbSymbolTable
 70
2
  0
BLOCK_RECORD
  5
17
330
9
100
AcDbSymbolTableRecord
100
AcDbBlockTableRecord
  2
*Model_Space
340
1A
 70
0
280
1
281
0
  0
BLOCK_RECORD
  5
1B
330
9
100
AcDbSymbolTableRecord
100
AcDbBlockTableRecord
  2
*Paper_Space
340
1E
 70
0
280
1
281
0
  0
ENDTAB
  0
ENDSEC
  0
SECTION
  2
BLOCKS
  0
BLOCK
  5
18
330
17
100
AcDbEntity
  8
0
100
AcDbBlockBegin
  2
*Model_Space
 70
0
 10
0.0
 20
0.0
 30
0.0
  3
*Model_Space
  1

  0
ENDBLK
  5
19
330
17
100
AcDbEntity
  8
0
100
AcDbBlockEnd
  0
BLOCK
  5
1C
330
1B
100
AcDbEntity
  8
0
100
AcDbBlockBegin
  2
*Paper_Space
 70
0
 10
0.0
 20
0.0
 30
0.0
  3
*Paper_Space
  1

  0
ENDBLK
  5
1D
330
1B
100
AcDbEntity
  8
0
100
AcDbBlockEnd
  0
ENDSEC
  0
SECTION
  2
ENTITIES
  0
LINE
  5
2D
330
17
100
AcDbEntity
  8
0
100
AcDbLine
 10
-68.61261213224023
 20
58.17638986041041
 30
0.0
 11
-75.61261213224023
 21
51.17638986041041
 31
0.0
  0
LINE
  5
2E
330
17
100
AcDbEntity
  8
0
100
AcDbLine
 10
-68.61261213224023
 20
58.176389860410396
 30
0.0
 11
-63.307802660623494
 21
64.68856768690148
 31
0.0
  0
LINE
  5
2F
330
17
100
AcDbEntity
  8
0
100
AcDbLine
 10
-63.307802660623494
 20
64.68856768690148
 30
0.0
 11
-63.163381647698884
 21
64.68856768690148
 31
0.0
  0
LINE
  5
30
330
17
100
AcDbEntity
  8
0
100
AcDbLine
 10
-63.163381647698884
 20
68.18856768690148
 30
0.0
 11
-63.163381647698884
 21
64.68856768690148
 31
0.0
  0
LINE
  5
31
330
17
100
AcDbEntity
  8
0
100
AcDbLine
 10
-63.163381647698884
 20
68.18856768690148
 30
0.0
 11
-48.38338164769888
 21
68.18856768690148
 31
0.0
  0
LINE
  5
32
330
17
100
AcDbEntity
  8
0
100
AcDbLine
 10
-48.38338164769888
 20
68.18856768690148
 30
0.0
 11
-48.38338164769888
 21
64.68856768690148
 31
0.0
  0
LINE
  5
33
330
17
100
AcDbEntity
  8
0
100
AcDbLine
 10
-48.38338164769888
 20
64.68856768690148
 30
0.0
 11
-43.00828987626441
 21
64.68856768690148
 31
0.0
  0
LINE
  5
34
330
17
100
AcDbEntity
  8
0
100
AcDbLine
 10
-43.00828987626441
 20
67.9565168793326
 30
0.0
 11
-43.00828987626441
 21
64.68856768690148
 31
0.0
  0
LINE
  5
35
330
17
100
AcDbEntity
  8
0
100
AcDbLine
 10
-43.00828987626441
 20
67.9565168793326
 30
0.0
 11
-32.50828987626441
 21
67.9565168793326
 31
0.0
  0
LINE
  5
36
330
17
100
AcDbEntity
  8
0
100
AcDbLine
 10
-32.50828987626441
 20
67.9565168793326
 30
0.0
 11
-32.50828987626441
 21
64.68856768690148
 31
0.0
  0
LINE
  5
37
330
17
100
AcDbEntity
  8
0
100
AcDbLine
 10
-32.50828987626441
 20
64.68856768690148
 30
0.0
 11
-29.541424646008522
 21
64.68856768690148
 31
0.0
  0
LINE
  5
38
330
17
100
AcDbEntity
  8
0
100
AcDbLine
 10
-29.54142464600852
 20
64.68856768690148
 30
0.0
 11
-27.471607712621122
 21
67.50856768690147
 31
0.0
  0
LINE
  5
39
330
17
100
AcDbEntity
  8
0
100
AcDbLine
 10
-27.471607712621136
 20
67.50856768690147
 30
0.0
 11
-11.12095611094631
 21
67.50856768690147
 31
0.0
  0
LINE
  5
3A
330
17
100
AcDbEntity
  8
0
100
AcDbLine
 10
-6.614272146256017
 20
64.6885676869015
 30
-1.1102230246251565e-16
 11
-11.120956110946318
 21
67.50856768690149
 31
-1.1102230246251565e-16
  0
LINE
  5
3B
330
17
100
AcDbEntity
  8
0
100
AcDbLine
 10
-6.61427214625602
 20
64.68856768690148
 30
0.0
 11
-2.450478386109251
 21
64.68856768690148
 31
0.0
  0
ARC
  5
3C
330
17
100
AcDbEntity
  8
0
100
AcDbCircle
 10
1.433870914727445
 20
62.9565168793326
 30
0.0
 40
4.253018867924529
100
AcDbArc
 50
24.032331659255068
 51
155.9676683407449
  0
LINE
  5
3D
330
17
100
AcDbEntity
  8
0
100
AcDbLine
 10
5.318220215564148
 20
64.68856768690148
 30
0.0
 11
10.096244648544861
 21
64.68856768690148
 31
0.0
  0
LINE
  5
3E
330
17
100
AcDbEntity
  8
0
100
AcDbLine
 10
14.976704841931847
 20
52.688567686901486
 30
0.0
 11
10.096244648544856
 21
64.68856768690151
 31
0.0
  0
LINE
  5
3F
330
17
100
AcDbEntity
  8
0
100
AcDbLine
 10
14.976704841931841
 20
52.68856768690147
 30
0.0
 11
52.72145679170285
 21
52.68856768690147
 31
0.0
  0
LINE
  5
40
330
17
100
AcDbEntity
  8
0
100
AcDbLine
 10
52.721456791702856
 20
52.68856768690148
 30
0.0
 11
59.389774578728286
 21
46.626389860410406
 31
0.0
  0
LINE
  5
41
330
17
100
AcDbEntity
  8
0
100
AcDbLine
 10
58.63756014897314
 20
25.790054572837676
 30
0.0
 11
59.38977457872831
 21
46.62638986041041
 31
0.0
  0
LINE
  5
42
330
17
100
AcDbEntity
  8
0
100
AcDbLine
 10
58.63756014897315
 20
17.88125048409333
 30
0.0
 11
58.63756014897315
 21
25.790054572837676
 31
0.0
  0
ARC
  5
43
330
17
100
AcDbEntity
  8
0
100
AcDbCircle
 10
56.12855283183141
 20
14.44714917902802
 30
0.0
 40
4.253018867924529
100
AcDbArc
 50
299.0781876753641
 51
413.84756035877416
  0
LINE
  5
44
330
17
100
AcDbEntity
  8
0
100
AcDbLine
 10
58.19553149682104
 20
10.730192266525568
 30
0.0
 11
57.155209699866305
 21
-12.000000000000052
 31
0.0
  0
LINE
  5
45
330
17
100
AcDbEntity
  8
0
100
AcDbLine
 10
58.63756014897312
 20
-44.38816182954089
 30
0.0
 11
57.155209699866305
 21
-11.999999999999968
 31
0.0
  0
LINE
  5
46
330
17
100
AcDbEntity
  8
0
100
AcDbLine
 10
58.63756014897315
 20
-45.86577617522545
 30
0.0
 11
58.63756014897315
 21
-44.38816182954089
 31
0.0
  0
LINE
  5
47
330
17
100
AcDbEntity
  8
0
100
AcDbLine
 10
51.61082128616971
 20
-53.276807055266595
 30
-5.551115123125783e-17
 11
58.63756014897314
 21
-45.86577617522546
 31
-5.551115123125783e-17
  0
LINE
  5
48
330
17
100
AcDbEntity
  8
0
100
AcDbLine
 10
51.610821286169696
 20
-53.27680705526657
 30
0.0
 11
37.249791359759314
 21
-53.612184651766384
 31
0.0
  0
LINE
  5
49
330
17
100
AcDbEntity
  8
0
100
AcDbLine
 10
19.440194621869658
 20
-53.61218465176639
 30
0.0
 11
37.24979135975931
 21
-53.61218465176639
 31
0.0
  0
LINE
  5
4A
330
17
100
AcDbEntity
  8
0
100
AcDbLine
 10
19.440194621869658
 20
-53.612184651766384
 30
0.0
 11
13.476985040556595
 21
-64.68856768690148
 31
0.0
  0
LINE
  5
4B
330
17
100
AcDbEntity
  8
0
100
AcDbLine
 10
-6.614272146256022
 20
-64.68856768690148
 30
0.0
 11
13.476985040556606
 21
-64.68856768690148
 31
0.0
  0
LINE
  5
4C
330
17
100
AcDbEntity
  8
0
100
AcDbLine
 10
-13.664748180230337
 20
-65.66664373868082
 30
0.0
 11
-6.614272146256019
 21
-64.6885676869015
 31
0.0
  0
ARC
  5
4D
330
17
100
AcDbEntity
  8
0
100
AcDbCircle
 10
-17.862809742010093
 20
-66.34814840809206
 30
0.0
 40
4.253018867924529
100
AcDbArc
 50
213.46183736916674
 51
369.2208395872865
  0
LINE
  5
4E
330
17
100
AcDbEntity
  8
0
100
AcDbLine
 10
-30.50047094929212
 20
-74.64965437142533
 30
0.0
 11
-21.410904606689602
 21
-68.69318408418677
 31
0.0
  0
LINE
  5
4F
330
17
100
AcDbEntity
  8
0
100
AcDbLine
 10
-40.0419028635217
 20
-85.24648806476047
 30
0.0
 11
-30.50047094929211
 21
-74.64965437142533
 31
0.0
  0
LINE
  5
50
330
17
100
AcDbEntity
  8
0
100
AcDbLine
 10
-38.73386855304219
 20
-90.21995169180772
 30
0.0
 11
-40.04190286352226
 21
-85.24648806475996
 31
0.0
  0
LINE
  5
51
330
17
100
AcDbEntity
  8
0
100
AcDbLine
 10
-41.02055219246229
 20
-93.36730171094345
 30
0.0
 11
-38.733868553042186
 21
-90.21995169180772
 31
0.0
  0
LINE
  5
52
330
17
100
AcDbEntity
  8
0
100
AcDbLine
 10
-41.020552192462624
 20
-93.36730171094322
 30
5.551115123125783e-17
 11
-46.06218418824398
 21
-98.43074372330372
 31
5.551115123125783e-17
  0
LINE
  5
53
330
17
100
AcDbEntity
  8
0
100
AcDbLine
 10
-46.06218418824398
 20
-98.43074372330372
 30
0.0
 11
-53.43439046350036
 21
-103.15626580863213
 31
0.0
  0
LINE
  5
54
330
17
100
AcDbEntity
  8
0
100
AcDbLine
 10
-53.43439046350035
 20
-103.1562658086321
 30
0.0
 11
-60.95617376138166
 21
-103.19203048731663
 31
0.0
  0
LINE
  5
55
330
17
100
AcDbEntity
  8
0
100
AcDbLine
 10
-74.30084571720316
 20
-91.3929430539527
 30
8.881784197001252e-16
 11
-60.95617376138169
 21
-103.19203048731666
 31
8.881784197001252e-16
  0
LINE
  5
56
330
17
100
AcDbEntity
  8
0
100
AcDbLine
 10
-74.30084571720315
 20
-91.39294305395265
 30
0.0
 11
-77.42325988704457
 21
-91.04998363464139
 31
0.0
  0
LINE
  5
57
330
17
100
AcDbEntity
  8
0
100
AcDbLine
 10
-79.2202270219415
 20
-90.17250919225802
 30
0.0
 11
-77.42325988704457
 21
-91.0499836346414
 31
0.0
  0
LINE
  5
58
330
17
100
AcDbEntity
  8
0
100
AcDbLine
 10
-92.6905555636616
 20
-79.11007721108851
 30
5.551115123125783e-17
 11
-79.22022702194148
 21
-90.172509192258
 31
5.551115123125783e-17
  0
LINE
  5
59
330
17
100
AcDbEntity
  8
0
100
AcDbLine
 10
-93.27284153217147
 20
-73.46249208138985
 30
-2.220446049250313e-16
 11
-92.69055556366159
 21
-79.11007721108852
 31
-2.220446049250313e-16
  0
LINE
  5
5A
330
17
100
AcDbEntity
  8
0
100
AcDbLine
 10
-86.17000504936371
 20
-60.57933415534406
 30
0.0
 11
-93.27284153217148
 21
-73.46249208138985
 31
0.0
  0
LINE
  5
5B
330
17
100
AcDbEntity
  8
0
100
AcDbLine
 10
-81.90167162036542
 20
-55.54571990934638
 30
2.220446049250313e-16
 11
-86.17000504936374
 21
-60.579334155344036
 31
2.220446049250313e-16
  0
LINE
  5
5C
330
17
100
AcDbEntity
  8
0
100
AcDbLine
 10
-81.90167162036542
 20
-55.54571990934641
 30
-2.220446049250313e-16
 11
-81.99696192116613
 21
-55.02768693027008
 31
-2.220446049250313e-16
  0
LINE
  5
5D
330
17
100
AcDbEntity
  8
0
100
AcDbLine
 10
-85.88984790751451
 20
-45.67027197845192
 30
0.0
 11
-81.99696192116613
 21
-55.02768693027007
 31
0.0
  0
LINE
  5
5E
330
17
100
AcDbEntity
  8
0
100
AcDbLine
 10
-85.8898479075148
 20
-45.67027197845157
 30
-1.1102230246251565e-16
 11
-81.75731387078488
 21
-42.202664192404185
 31
-1.1102230246251565e-16
  0
ARC
  5
5F
330
17
100
AcDbEntity
  8
0
100
AcDbCircle
 10
-77.73761213224019
 20
-43.59196884748579
 30
0.0
 40
4.253018867924529
100
AcDbArc
 50
99.06636854943774
 51
160.93363145055966
  0
LINE
  5
60
330
17
100
AcDbEntity
  8
0
100
AcDbLine
 10
-78.40779624619745
 20
-39.392085188991274
 30
-1.1102230246251565e-16
 11
-76.23663759850643
 21
-37.570266768486526
 31
-1.1102230246251565e-16
  0
LINE
  5
61
330
17
100
AcDbEntity
  8
0
100
AcDbLine
 10
-76.23663759850643
 20
-37.570266768486526
 30
0.0
 11
-81.01660539171672
 21
-31.0184181912051
 31
0.0
  0
LINE
  5
62
330
17
100
AcDbEntity
  8
0
100
AcDbLine
 10
-81.01660539171675
 20
-31.018418191205114
 30
0.0
 11
-83.26833108410868
 21
-14.211308813775318
 31
0.0
  0
LINE
  5
63
330
17
100
AcDbEntity
  8
0
100
AcDbLine
 10
-83.62782855682346
 20
-8.75
 30
0.0
 11
-83.26833108410867
 21
-14.211308813775322
 31
0.0
  0
LINE
  5
64
330
17
100
AcDbEntity
  8
0
100
AcDbLine
 10
-83.62782855682346
 20
8.750000000000002
 30
0.0
 11
-83.62782855682346
 21
-8.75
 31
0.0
  0
LINE
  5
65
330
17
100
AcDbEntity
  8
0
100
AcDbLine
 10
-83.62782855682345
 20
8.749999999999995
 30
0.0
 11
-83.26833108410865
 21
14.211308813775316
 31
0.0
  0
LINE
  5
66
330
17
100
AcDbEntity
  8
0
100
AcDbLine
 10
-81.01660539171674
 20
31.01841819120511
 30
0.0
 11
-83.26833108410867
 21
14.211308813775316
 31
0.0
  0
LINE
  5
67
330
17
100
AcDbEntity
  8
0
100
AcDbLine
 10
-81.01660539171672
 20
31.018418191205107
 30
0.0
 11
-79.9626121322402
 21
36.10754783456117
 31
0.0
  0
LINE
  5
68
330
17
100
AcDbEntity
  8
0
100
AcDbLine
 10
-78.97653968131434
 20
39.52340300445619
 30
0.0
 11
-79.96261213224018
 21
36.10754783456116
 31
0.0
  0
ARC
  5
69
330
17
100
AcDbEntity
  8
0
100
AcDbCircle
 10
-77.73761213224019
 20
43.59196884748579
 30
0.0
 40
4.253018867924529
100
AcDbArc
 50
74.73189970827684
 51
253.06387278775142
  0
LINE
  5
6A
330
17
100
AcDbEntity
  8
0
100
AcDbLine
 10
-75.61261213224019
 20
51.176389860410396
 30
0.0
 11
-76.61763921097477
 21
47.694873933708756
 31
0.0
  0
CIRCLE
  5
6B
330
17
100
AcDbEntity
  8
0
100
AcDbCircle
 10
-17.862809742010093
 20
-66.34814840809206
 30
0.0
 40
2.652236842105263
  0
CIRCLE
  5
6C
330
17
100
AcDbEntity
  8
0
100
AcDbCircle
 10
-77.73761213224019
 20
-43.59196884748579
 30
0.0
 40
2.652236842105263
  0
LINE
  5
6D
330
17
100
AcDbEntity
  8
0
100
AcDbLine
 10
-63.746200120245064
 20
62.86991433895417
 30
0.0
 11
-63.163381647698884
 21
62.86991433895417
 31
0.0
  0
LINE
  5
6E
330
17
100
AcDbEntity
  8
0
100
AcDbLine
 10
-68.51261213224024
 20
56.0763898604104
 30
0.0
 11
-63.746200120245064
 21
62.86991433895416
 31
0.0
  0
LINE
  5
6F
330
17
100
AcDbEntity
  8
0
100
AcDbLine
 10
-68.51261213224022
 20
56.0763898604104
 30
0.0
 11
-73.51261213224022
 21
51.0763898604104
 31
0.0
  0
LINE
  5
70
330
17
100
AcDbEntity
  8
0
100
AcDbLine
 10
-74.78853548887638
 20
46.65646169989511
 30
0.0
 11
-73.51261213224022
 21
51.07638986041043
 31
0.0
  0
ARC
  5
71
330
17
100
AcDbEntity
  8
0
100
AcDbCircle
 10
-77.73761213224019
 20
43.59196884748579
 30
0.0
 40
4.253018867924529
100
AcDbArc
 50
281.69625084169155
 51
406.0995216543364
  0
LINE
  5
72
330
17
100
AcDbEntity
  8
0
100
AcDbLine
 10
-77.8626121322402
 20
36.00754783456117
 30
0.0
 11
-76.8754264554876
 21
39.42725933184073
 31
0.0
  0
LINE
  5
73
330
17
100
AcDbEntity
  8
0
100
AcDbLine
 10
-77.86261213224022
 20
36.00754783456118
 30
0.0
 11
-78.91660539171674
 21
30.918418191205102
 31
0.0
  0
LINE
  5
74
330
17
100
AcDbEntity
  8
0
100
AcDbLine
 10
-81.16833108410867
 20
14.111308813775317
 30
0.0
 11
-78.91660539171674
 21
30.918418191205106
 31
0.0
  0
LINE
  5
75
330
17
100
AcDbEntity
  8
0
100
AcDbLine
 10
-81.16833108410867
 20
14.111308813775317
 30
-4.440892098500626e-16
 11
-81.52782855682347
 21
8.649999999999997
 31
-4.440892098500626e-16
  0
LINE
  5
76
330
17
100
AcDbEntity
  8
0
100
AcDbLine
 10
-81.52782855682344
 20
-8.649999999999999
 30
0.0
 11
-81.52782855682344
 21
8.649999999999999
 31
0.0
  0
LINE
  5
77
330
17
100
AcDbEntity
  8
0
100
AcDbLine
 10
-81.16833108410866
 20
-14.111308813775315
 30
0.0
 11
-81.52782855682345
 21
-8.649999999999995
 31
0.0
  0
LINE
  5
78
330
17
100
AcDbEntity
  8
0
100
AcDbLine
 10
-78.91660539171673
 20
-30.918418191205106
 30
0.0
 11
-81.16833108410866
 21
-14.111308813775311
 31
0.0
  0
LINE
  5
79
330
17
100
AcDbEntity
  8
0
100
AcDbLine
 10
-78.91660539171673
 20
-30.918418191205106
 30
0.0
 11
-74.35559186293824
 21
-38.718219861933704
 31
0.0
  0
LINE
  5
7A
330
17
100
AcDbEntity
  8
0
100
AcDbLine
 10
-74.35559186293824
 20
-38.718219861933704
 30
1.1102230246251565e-16
 11
-75.7090507788294
 21
-39.85390673907156
 31
1.1102230246251565e-16
  0
ARC
  5
7B
330
17
100
AcDbEntity
  8
0
100
AcDbCircle
 10
-77.73761213224019
 20
-43.59196884748579
 30
0.0
 40
4.253018867924529
100
AcDbArc
 50
198.48767802716173
 51
421.51232197283815
  0
LINE
  5
7C
330
17
100
AcDbEntity
  8
0
100
AcDbLine
 10
-81.77114066015304
 20
-44.940604122653745
 30
1.1102230246251565e-16
 11
-84.38984994730191
 21
-47.137962119660884
 31
1.1102230246251565e-16
  0
LINE
  5
7D
330
17
100
AcDbEntity
  8
0
100
AcDbLine
 10
-84.3898499473019
 20
-47.13796211966088
 30
0.0
 11
-80.16731859406588
 21
-56.752115511306556
 31
0.0
  0
LINE
  5
7E
330
17
100
AcDbEntity
  8
0
100
AcDbLine
 10
-80.17354165764907
 20
-56.76008066946646
 30
0.0
 11
-80.16731859406586
 21
-56.75211551130654
 31
0.0
  0
LINE
  5
7F
330
17
100
AcDbEntity
  8
0
100
AcDbLine
 10
-80.17354165764905
 20
-56.760080669466454
 30
-5.551115123125783e-17
 11
-90.71131020813374
 21
-75.30886116774366
 31
-5.551115123125783e-17
  0
LINE
  5
80
330
17
100
AcDbEntity
  8
0
100
AcDbLine
 10
-90.71131020813374
 20
-75.30886116774367
 30
0.0
 11
-90.57027623815387
 21
-76.76452032318667
 31
0.0
  0
LINE
  5
81
330
17
100
AcDbEntity
  8
0
100
AcDbLine
 10
-77.24011721124428
 20
-87.68250730447656
 30
4.440892098500626e-16
 11
-90.57027623815388
 21
-76.76452032318667
 31
4.440892098500626e-16
  0
LINE
  5
82
330
17
100
AcDbEntity
  8
0
100
AcDbLine
 10
-77.24011721124427
 20
-87.68250730447656
 30
0.0
 11
-72.70740145694512
 21
-89.04822328175587
 31
0.0
  0
LINE
  5
83
330
17
100
AcDbEntity
  8
0
100
AcDbLine
 10
-71.64364355414591
 20
-88.57857253600477
 30
0.0
 11
-72.70765397090075
 21
-89.04765050388615
 31
0.0
  0
LINE
  5
84
330
17
100
AcDbEntity
  8
0
100
AcDbLine
 10
-70.72209019302204
 20
-90.44863253536577
 30
-2.220446049250313e-16
 11
-71.64364355414591
 21
-88.57857253600477
 31
-2.220446049250313e-16
  0
LINE
  5
85
330
17
100
AcDbEntity
  8
0
100
AcDbLine
 10
-70.72209019302204
 20
-90.44863253536576
 30
4.440892098500626e-16
 11
-58.79894681168732
 21
-100.87979806723051
 31
4.440892098500626e-16
  0
LINE
  5
86
330
17
100
AcDbEntity
  8
0
100
AcDbLine
 10
-56.40915210912435
 20
-100.84759075402499
 30
0.0
 11
-58.798946811687316
 21
-100.8797980672305
 31
0.0
  0
LINE
  5
87
330
17
100
AcDbEntity
  8
0
100
AcDbLine
 10
-56.40915210912435
 20
-100.84759075402496
 30
0.0
 11
-42.02898005691985
 21
-91.32095182919282
 31
0.0
  0
LINE
  5
88
330
17
100
AcDbEntity
  8
0
100
AcDbLine
 10
-42.028980056919934
 20
-91.32095182919278
 30
0.0
 11
-40.23098216219915
 21
-88.84622003385402
 31
0.0
  0
LINE
  5
89
330
17
100
AcDbEntity
  8
0
100
AcDbLine
 10
-40.230982162199126
 20
-88.84622003385402
 30
0.0
 11
-41.56729663641025
 21
-83.81940121196686
 31
0.0
  0
LINE
  5
8A
330
17
100
AcDbEntity
  8
0
100
AcDbLine
 10
-41.56729663641005
 20
-83.81940121196706
 30
0.0
 11
-31.91491783945652
 21
-73.09934852219808
 31
0.0
  0
LINE
  5
8B
330
17
100
AcDbEntity
  8
0
100
AcDbLine
 10
-31.914917839456503
 20
-73.0993485221981
 30
0.0
 11
-22.098273078895826
 21
-66.73417925245397
 31
0.0
  0
ARC
  5
8C
330
17
100
AcDbEntity
  8
0
100
AcDbCircle
 10
-17.862809742010093
 20
-66.34814840809206
 30
0.0
 40
4.253018867924529
100
AcDbArc
 50
37.38550140467814
 51
185.2076940727734
  0
LINE
  5
8D
330
17
100
AcDbEntity
  8
0
100
AcDbLine
 10
-6.982624726242577
 20
-62.86991433895415
 30
0.0
 11
-14.483495810757368
 21
-63.76582254853591
 31
0.0
  0
LINE
  5
8E
330
17
100
AcDbEntity
  8
0
100
AcDbLine
 10
12.142706634280977
 20
-62.869914338954146
 30
0.0
 11
-6.982624726242577
 21
-62.869914338954146
 31
0.0
  0
LINE
  5
8F
330
17
100
AcDbEntity
  8
0
100
AcDbLine
 10
16.354810666229564
 20
-53.612184651766384
 30
0.0
 11
12.142706634280975
 21
-62.86991433895415
 31
0.0
  0
LINE
  5
90
330
17
100
AcDbEntity
  8
0
100
AcDbLine
 10
12.448059575482981
 20
-53.612184651766384
 30
0.0
 11
16.354810666229568
 21
-53.612184651766384
 31
0.0
  0
LINE
  5
91
330
17
100
AcDbEntity
  8
0
100
AcDbLine
 10
12.353678318875119
 20
-51.58374041655935
 30
0.0
 11
12.448059575482981
 21
-53.61218465176639
 31
0.0
  0
LINE
  5
92
330
17
100
AcDbEntity
  8
0
100
AcDbLine
 10
32.05585748275773
 20
-51.583740416559344
 30
0.0
 11
12.353678318875119
 21
-51.583740416559344
 31
0.0
  0
LINE
  5
93
330
17
100
AcDbEntity
  8
0
100
AcDbLine
 10
34.144356112915446
 20
-51.40358120262283
 30
-8.881784197001252e-16
 11
32.05585748275773
 21
-51.58374041655936
 31
-8.881784197001252e-16
  0
LINE
  5
94
330
17
100
AcDbEntity
  8
0
100
AcDbLine
 10
51.510439302415364
 20
-50.40425114251907
 30
-6.661338147750939e-16
 11
34.144356112915446
 21
-51.403581202622846
 31
-6.661338147750939e-16
  0
LINE
  5
95
330
17
100
AcDbEntity
  8
0
100
AcDbLine
 10
51.510439302415364
 20
-50.40425114251906
 30
0.0
 11
55.34659742124653
 21
-45.83910343287589
 31
0.0
  0
LINE
  5
96
330
17
100
AcDbEntity
  8
0
100
AcDbLine
 10
55.34659742124653
 20
-45.83910343287589
 30
-3.469446951953614e-18
 11
53.84097854042067
 21
-27.96398669757966
 31
-3.469446951953614e-18
  0
LINE
  5
97
330
17
100
AcDbEntity
  8
0
100
AcDbLine
 10
53.84097854042067
 20
-27.963986697579664
 30
-1.1102230246251565e-16
 11
54.58074000145369
 21
-27.946710818199442
 31
-1.1102230246251565e-16
  0
LINE
  5
98
330
17
100
AcDbEntity
  8
0
100
AcDbLine
 10
54.58074000145369
 20
-27.946710818199435
 30
-8.881784197001252e-16
 11
54.27055525597372
 21
-20.69999999999998
 31
-8.881784197001252e-16
  0
LINE
  5
99
330
17
100
AcDbEntity
  8
0
100
AcDbLine
 10
53.53005432645865
 20
-20.7
 30
0.0
 11
54.27055525597371
 21
-20.7
 31
0.0
  0
LINE
  5
9A
330
17
100
AcDbEntity
  8
0
100
AcDbLine
 10
53.530054326458654
 20
-3.299999999999997
 30
-5.551115123125783e-17
 11
53.530054326458654
 21
-20.700000000000003
 31
-5.551115123125783e-17
  0
LINE
  5
9B
330
17
100
AcDbEntity
  8
0
100
AcDbLine
 10
54.270555255973726
 20
-3.3000000000000003
 30
0.0
 11
53.53005432645865
 21
-3.3000000000000003
 31
0.0
  0
LINE
  5
9C
330
17
100
AcDbEntity
  8
0
100
AcDbLine
 10
54.27055525597372
 20
-3.3
 30
0.0
 11
54.58074000145369
 21
3.94671081819944
 31
0.0
  0
LINE
  5
9D
330
17
100
AcDbEntity
  8
0
100
AcDbLine
 10
53.840978540420664
 20
3.96398669757966
 30
-2.220446049250313e-16
 11
54.5807400014537
 21
3.94671081819944
 31
-2.220446049250313e-16
  0
LINE
  5
9E
330
17
100
AcDbEntity
  8
0
100
AcDbLine
 10
54.39678512982184
 20
10.562673652370844
 30
-3.469446951953614e-18
 11
53.84097854042067
 21
3.963986697579661
 31
-3.469446951953614e-18
  0
ARC
  5
9F
330
17
100
AcDbEntity
  8
0
100
AcDbCircle
 10
56.12855283183141
 20
14.44714917902802
 30
0.0
 40
4.253018867924529
100
AcDbArc
 50
104.39885222656588
 51
245.97184419850714
  0
LINE
  5
A0
330
17
100
AcDbEntity
  8
0
100
AcDbLine
 10
55.355300420557654
 20
21.94242780706835
 30
-3.469446951953614e-18
 11
55.070952571292324
 21
18.56657282558705
 31
-3.469446951953614e-18
  0
LINE
  5
A1
330
17
100
AcDbEntity
  8
0
100
AcDbLine
 10
56.09506188159066
 20
21.925151927688127
 30
-8.881784197001252e-16
 11
55.35530042055764
 21
21.942427807068352
 31
-8.881784197001252e-16
  0
LINE
  5
A2
330
17
100
AcDbEntity
  8
0
100
AcDbLine
 10
56.095061881590674
 20
21.925151927688127
 30
0.0
 11
56.52953849013209
 21
25.380608442697728
 31
0.0
  0
LINE
  5
A3
330
17
100
AcDbEntity
  8
0
100
AcDbLine
 10
56.5295384901321
 20
25.380608442697728
 30
0.0
 11
56.75253273927216
 21
31.55754783456117
 31
0.0
  0
LINE
  5
A4
330
17
100
AcDbEntity
  8
0
100
AcDbLine
 10
56.7525327392722
 20
31.55754783456117
 30
0.0
 11
56.539510750830985
 21
31.55754783456117
 31
0.0
  0
LINE
  5
A5
330
17
100
AcDbEntity
  8
0
100
AcDbLine
 10
57.293407925598245
 20
46.53978732003197
 30
5.551115123125783e-17
 11
56.539510750829066
 21
31.55754783456127
 31
5.551115123125783e-17
  0
LINE
  5
A6
330
17
100
AcDbEntity
  8
0
100
AcDbLine
 10
57.293407925598224
 20
46.53978732003196
 30
0.0
 11
52.53032379200865
 21
50.86991433895416
 31
0.0
  0
LINE
  5
A7
330
17
100
AcDbEntity
  8
0
100
AcDbLine
 10
52.53032379200866
 20
50.86991433895416
 30
0.0
 11
14.69589348008033
 21
50.86991433895416
 31
0.0
  0
LINE
  5
A8
330
17
100
AcDbEntity
  8
0
100
AcDbLine
 10
14.695893480080345
 20
50.86991433895416
 30
-4.440892098500626e-16
 11
9.7278920685583
 21
62.869914338954175
 31
-4.440892098500626e-16
  0
LINE
  5
A9
330
17
100
AcDbEntity
  8
0
100
AcDbLine
 10
5.686007964602721
 20
62.86991433895417
 30
0.0
 11
9.727892068558308
 21
62.86991433895417
 31
0.0
  0
ARC
  5
AA
330
17
100
AcDbEntity
  8
0
100
AcDbCircle
 10
1.433870914727445
 20
62.9565168793326
 30
0.0
 40
4.253018867924529
100
AcDbArc
 50
181.16677192785164
 51
358.83322807214824
  0
LINE
  5
AB
330
17
100
AcDbEntity
  8
0
100
AcDbLine
 10
-6.98262472624258
 20
62.86991433895417
 30
0.0
 11
-2.818266135147833
 21
62.86991433895417
 31
0.0
  0
LINE
  5
AC
330
17
100
AcDbEntity
  8
0
100
AcDbLine
 10
-6.982624726242573
 20
62.869914338954146
 30
0.0
 11
-11.574046523516873
 21
65.68991433895415
 31
0.0
  0
LINE
  5
AD
330
17
100
AcDbEntity
  8
0
100
AcDbLine
 10
-27.736759601034493
 20
65.68991433895417
 30
0.0
 11
-11.574046523516866
 21
65.68991433895417
 31
0.0
  0
LINE
  5
AE
330
17
100
AcDbEntity
  8
0
100
AcDbLine
 10
-27.73675960103448
 20
65.68991433895417
 30
0.0
 11
-29.894543042132597
 21
62.869914338954146
 31
0.0
  0
LINE
  5
AF
330
17
100
AcDbEntity
  8
0
100
AcDbLine
 10
-32.50828987626441
 20
62.86991433895417
 30
0.0
 11
-29.894543042132597
 21
62.86991433895417
 31
0.0
  0
LINE
  5
B0
330
17
100
AcDbEntity
  8
0
100
AcDbLine
 10
-32.50828987626441
 20
62.86991433895417
 30
0.0
 11
-32.50828987626441
 21
57.9565168793326
 31
0.0
  0
LINE
  5
B1
330
17
100
AcDbEntity
  8
0
100
AcDbLine
 10
-43.00828987626441
 20
57.9565168793326
 30
0.0
 11
-32.50828987626441
 21
57.9565168793326
 31
0.0
  0
LINE
  5
B2
330
17
100
AcDbEntity
  8
0
100
AcDbLine
 10
-43.00828987626441
 20
62.86991433895417
 30
0.0
 11
-43.00828987626441
 21
57.9565168793326
 31
0.0
  0
LINE
  5
B3
330
17
100
AcDbEntity
  8
0
100
AcDbLine
 10
-48.38338164769888
 20
62.86991433895417
 30
0.0
 11
-43.00828987626441
 21
62.86991433895417
 31
0.0
  0
LINE
  5
B4
330
17
100
AcDbEntity
  8
0
100
AcDbLine
 10
-48.38338164769888
 20
62.869914338954175
 30
0.0
 11
-48.38338164769888
 21
55.18856768690148
 31
0.0
  0
LINE
  5
B5
330
17
100
AcDbEntity
  8
0
100
AcDbLine
 10
-63.163381647698884
 20
55.18856768690148
 30
0.0
 11
-48.38338164769888
 21
55.18856768690148
 31
0.0
  0
LINE
  5
B6
330
17
100
AcDbEntity
  8
0
100
AcDbLine
 10
-63.163381647698884
 20
62.869914338954175
 30
0.0
 11
-63.163381647698884
 21
55.18856768690148
 31
0.0
  0
CIRCLE
  5
B7
330
17
100
AcDbEntity
  8
0
100
AcDbCircle
 10
-77.73761213224019
 20
43.59196884748579
 30
0.0
 40
2.652236842105263
  0
CIRCLE
  5
B8
330
17
100
AcDbEntity
  8
0
100
AcDbCircle
 10
56.12855283183141
 20
14.44714917902802
 30
0.0
 40
2.652236842105263
  0
CIRCLE
  5
B9
330
17
100
AcDbEntity
  8
0
100
AcDbCircle
 10
1.433870914727445
 20
62.9565168793326
 30
0.0
 40
2.652236842105263
  0
ENDSEC
  0
SECTION
  2
OBJECTS
  0
DICTIONARY
  5
A
330
0
100
AcDbDictionary
281
1
  3
ACAD_COLOR
350
B
  3
ACAD_GROUP
350
C
  3
ACAD_LAYOUT
350
D
  3
ACAD_MATERIAL
350
E
  3
ACAD_MLEADERSTYLE
350
F
  3
ACAD_MLINESTYLE
350
10
  3
ACAD_PLOTSETTINGS
350
11
  3
ACAD_PLOTSTYLENAME
350
12
  3
ACAD_SCALELIST
350
14
  3
ACAD_TABLESTYLE
350
15
  3
ACAD_VISUALSTYLE
350
16
  0
DICTIONARY
  5
B
330
A
100
AcDbDictionary
281
1
  0
DICTIONARY
  5
C
330
A
100
AcDbDictionary
281
1
  0
DICTIONARY
  5
D
330
A
100
AcDbDictionary
281
1
  3
Model
350
1A
  3
Layout1
350
1E
  0
DICTIONARY
  5
E
330
A
100
AcDbDictionary
281
1
  3
ByBlock
350
1F
  3
ByLayer
350
20
  3
Global
350
21
  0
DICTIONARY
  5
F
330
A
100
AcDbDictionary
281
1
  3
Standard
350
2C
  0
DICTIONARY
  5
10
330
A
100
AcDbDictionary
281
1
  3
Standard
350
22
  0
DICTIONARY
  5
11
330
A
100
AcDbDictionary
281
1
  0
ACDBDICTIONARYWDFLT
  5
12
330
A
100
AcDbDictionary
281
1
  3
Normal
350
13
100
AcDbDictionaryWithDefault
340
13
  0
ACDBPLACEHOLDER
  5
13
330
12
  0
DICTIONARY
  5
14
330
A
100
AcDbDictionary
281
1
  0
DICTIONARY
  5
15
330
A
100
AcDbDictionary
281
1
  0
DICTIONARY
  5
16
330
A
100
AcDbDictionary
281
1
  0
LAYOUT
  5
1A
330
D
100
AcDbPlotSettings
  1

  2
Adobe PDF
  4
A4
  6

 40
3.175
 41
3.175
 42
3.175
 43
3.175
 44
209.91
 45
297.03
 46
0.0
 47
0.0
 48
0.0
 49
0.0
140
0.0
141
0.0
142
1.0
143
1.0
 70
1024
 72
0
 73
1
 74
5
  7

 75
16
 76
0
 77
2
 78
300
147
1.0
148
0.0
149
0.0
100
AcDbLayout
  1
Model
 70
1
 71
0
 10
-3.175
 20
-3.175
 11
293.857
 21
206.735
 12
0.0
 22
0.0
 32
0.0
 14
29.068
 24
20.356
 34
0.0
 15
261.614
 25
183.204
 35
0.0
146
0.0
 13
0.0
 23
0.0
 33
0.0
 16
1.0
 26
0.0
 36
0.0
 17
0.0
 27
1.0
 37
0.0
 76
1
330
17
  0
LAYOUT
  5
1E
330
D
100
AcDbPlotSettings
  1

  2
Adobe PDF
  4
A4
  6

 40
3.175
 41
3.175
 42
3.175
 43
3.175
 44
209.91
 45
297.03
 46
0.0
 47
0.0
 48
0.0
 49
0.0
140
0.0
141
0.0
142
1.0
143
1.0
 70
0
 72
0
 73
1
 74
5
  7

 75
16
 76
0
 77
2
 78
300
147
1.0
148
0.0
149
0.0
100
AcDbLayout
  1
Layout1
 70
1
 71
1
 10
-3.175
 20
-3.175
 11
293.857
 21
206.735
 12
0.0
 22
0.0
 32
0.0
 14
29.068
 24
20.356
 34
0.0
 15
261.614
 25
183.204
 35
0.0
146
0.0
 13
0.0
 23
0.0
 33
0.0
 16
1.0
 26
0.0
 36
0.0
 17
0.0
 27
1.0
 37
0.0
 76
1
330
1B
  0
MATERIAL
  5
1F
102
{ACAD_REACTORS
330
E
102
}
330
E
100
AcDbMaterial
  1
ByBlock
  2

 70
0
 40
1.0
 71
1
 41
1.0
 91
-1023410177
 42
1.0
 72
1
  3

 73
1
 74
1
 75
1
 44
0.5
 73
0
 45
1.0
 46
1.0
 77
1
  4

 78
1
 79
1
170
1
 48
1.0
171
1
  6

172
1
173
1
174
1
140
1.0
141
1.0
175
1
  7

176
1
177
1
178
1
143
1.0
179
1
  8

270
1
271
1
272
1
145
1.0
146
1.0
273
1
  9

274
1
275
1
276
1
 42
1.0
 72
1
  3

 73
1
 74
1
 75
1
 94
63
  0
MATERIAL
  5
20
102
{ACAD_REACTORS
330
E
102
}
330
E
100
AcDbMaterial
  1
ByLayer
  2

 70
0
 40
1.0
 71
1
 41
1.0
 91
-1023410177
 42
1.0
 72
1
  3

 73
1
 74
1
 75
1
 44
0.5
 73
0
 45
1.0
 46
1.0
 77
1
  4

 78
1
 79
1
170
1
 48
1.0
171
1
  6

172
1
173
1
174
1
140
1.0
141
1.0
175
1
  7

176
1
177
1
178
1
143
1.0
179
1
  8

270
1
271
1
272
1
145
1.0
146
1.0
273
1
  9

274
1
275
1
276
1
 42
1.0
 72
1
  3

 73
1
 74
1
 75
1
 94
63
  0
MATERIAL
  5
21
102
{ACAD_REACTORS
330
E
102
}
330
E
100
AcDbMaterial
  1
Global
  2

 70
0
 40
1.0
 71
1
 41
1.0
 91
-1023410177
 42
1.0
 72
1
  3

 73
1
 74
1
 75
1
 44
0.5
 73
0
 45
1.0
 46
1.0
 77
1
  4

 78
1
 79
1
170
1
 48
1.0
171
1
  6

172
1
173
1
174
1
140
1.0
141
1.0
175
1
  7

176
1
177
1
178
1
143
1.0
179
1
  8

270
1
271
1
272
1
145
1.0
146
1.0
273
1
  9

274
1
275
1
276
1
 42
1.0
 72
1
  3

 73
1
 74
1
 75
1
 94
63
  0
MLINESTYLE
  5
22
102
{ACAD_REACTORS
330
10
102
}
330
10
100
AcDbMlineStyle
  2
Standard
 70
0
  3

 62
256
 51
90.0
 52
90.0
 71
2
 49
0.5
 62
256
  6
BYLAYER
 49
-0.5
 62
256
  6
BYLAYER
  0
MLEADERSTYLE
  5
2C
102
{ACAD_REACTORS
330
F
102
}
330
F
100
AcDbMLeaderStyle
179
2
170
2
171
1
172
0
 90
2
 40
0.0
 41
0.0
173
1
 91
-1056964608
 92
-2
290
1
 42
2.0
291
1
 43
8.0
  3
Standard
 44
4.0
300

342
29
174
1
175
1
176
0
178
1
 93
-1056964608
 45
4.0
292
0
297
0
 46
4.0
 94
-1056964608
 47
1.0
 49
0.0
140
1.0
294
1
141
0.0
177
0
142
1.0
295
0
296
0
143
3.75
271
0
272
9
272
9
  0
ENDSEC
  0
EOF
