  0
SECTION
  2
HEADER
  9
$ACADVER
  1
AC1027
  9
$ACADMAINTVER
 70
105
  9
$DWGCODEPAGE
  3
ANSI_1252
  9
$LASTSAVEDBY
  1
ezdxf
  9
$REQUIREDVERSIONS
160
0
  9
$INSBASE
 10
0.0
 20
0.0
 30
0.0
  9
$EXTMIN
 10
-100
 20
-100
 30
-100
  9
$EXTMAX
 10
100
 20
100
 30
100
  9
$LIMMIN
 10
0.0
 20
0.0
  9
$LIMMAX
 10
420.0
 20
297.0
  9
$ORTHOMODE
 70
0
  9
$REGENMODE
 70
1
  9
$FILLMODE
 70
1
  9
$QTEXTMODE
 70
0
  9
$MIRRTEXT
 70
1
  9
$LTSCALE
 40
1.0
  9
$ATTMODE
 70
1
  9
$TEXTSIZE
 40
2.5
  9
$TRACEWID
 40
1.0
  9
$TEXTSTYLE
  7
Standard
  9
$CLAYER
  8
0
  9
$CELTYPE
  6
ByLayer
  9
$CECOLOR
 62
256
  9
$CELTSCALE
 40
1.0
  9
$DISPSILH
 70
0
  9
$DIMSCALE
 40
1.0
  9
$DIMASZ
 40
2.5
  9
$DIMEXO
 40
0.625
  9
$DIMDLI
 40
3.75
  9
$DIMRND
 40
0.0
  9
$DIMDLE
 40
0.0
  9
$DIMEXE
 40
1.25
  9
$DIMTP
 40
0.0
  9
$DIMTM
 40
0.0
  9
$DIMTXT
 40
2.5
  9
$DIMCEN
 40
2.5
  9
$DIMTSZ
 40
0.0
  9
$DIMTOL
 70
0
  9
$DIMLIM
 70
0
  9
$DIMTIH
 70
0
  9
$DIMTOH
 70
0
  9
$DIMSE1
 70
0
  9
$DIMSE2
 70
0
  9
$DIMTAD
 70
1
  9
$DIMZIN
 70
8
  9
$DIMBLK
  1

  9
$DIMASO
 70
1
  9
$DIMSHO
 70
1
  9
$DIMPOST
  1

  9
$DIMAPOST
  1

  9
$DIMALT
 70
0
  9
$DIMALTD
 70
3
  9
$DIMALTF
 40
0.03937007874
  9
$DIMLFAC
 40
1.0
  9
$DIMTOFL
 70
1
  9
$DIMTVP
 40
0.0
  9
$DIMTIX
 70
0
  9
$DIMSOXD
 70
0
  9
$DIMSAH
 70
0
  9
$DIMBLK1
  1

  9
$DIMBLK2
  1

  9
$DIMSTYLE
  2
ISO-25
  9
$DIMCLRD
 70
0
  9
$DIMCLRE
 70
0
  9
$DIMCLRT
 70
0
  9
$DIMTFAC
 40
1.0
  9
$DIMGAP
 40
0.625
  9
$DIMJUST
 70
0
  9
$DIMSD1
 70
0
  9
$DIMSD2
 70
0
  9
$DIMTOLJ
 70
0
  9
$DIMTZIN
 70
8
  9
$DIMALTZ
 70
0
  9
$DIMALTTZ
 70
0
  9
$DIMUPT
 70
0
  9
$DIMDEC
 70
2
  9
$DIMTDEC
 70
2
  9
$DIMALTU
 70
2
  9
$DIMALTTD
 70
3
  9
$DIMTXSTY
  7
Standard
  9
$DIMAUNIT
 70
0
  9
$DIMADEC
 70
0
  9
$DIMALTRND
 40
0.0
  9
$DIMAZIN
 70
0
  9
$DIMDSEP
 70
44
  9
$DIMATFIT
 70
3
  9
$DIMFRAC
 70
0
  9
$DIMLDRBLK
  1

  9
$DIMLUNIT
 70
2
  9
$DIMLWD
 70
-2
  9
$DIMLWE
 70
-2
  9
$DIMTMOVE
 70
0
  9
$DIMFXL
 40
1.0
  9
$DIMFXLON
 70
0
  9
$DIMJOGANG
 40
0.785398163397
  9
$DIMTFILL
 70
0
  9
$DIMTFILLCLR
 70
0
  9
$DIMARCSYM
 70
0
  9
$DIMLTYPE
  6

  9
$DIMLTEX1
  6

  9
$DIMLTEX2
  6

  9
$DIMTXTDIRECTION
 70
0
  9
$LUNITS
 70
2
  9
$LUPREC
 70
4
  9
$SKETCHINC
 40
1.0
  9
$FILLETRAD
 40
10.0
  9
$AUNITS
 70
0
  9
$AUPREC
 70
2
  9
$MENU
  1
.
  9
$ELEVATION
 40
0.0
  9
$PELEVATION
 40
0.0
  9
$THICKNESS
 40
0.0
  9
$LIMCHECK
 70
0
  9
$CHAMFERA
 40
0.0
  9
$CHAMFERB
 40
0.0
  9
$CHAMFERC
 40
0.0
  9
$CHAMFERD
 40
0.0
  9
$SKPOLY
 70
0
  9
$TDCREATE
 40
2459398.725289352
  9
$TDUCREATE
 40
2458532.153996898
  9
$TDUPDATE
 40
2459398.725289352
  9
$TDUUPDATE
 40
2458532.1544311
  9
$TDINDWG
 40
0.0
  9
$TDUSRTIMER
 40
0.0
  9
$USRTIMER
 70
1
  9
$ANGBASE
 50
0.0
  9
$ANGDIR
 70
0
  9
$PDMODE
 70
0
  9
$PDSIZE
 40
0.0
  9
$PLINEWID
 40
0.0
  9
$SPLFRAME
 70
0
  9
$SPLINETYPE
 70
6
  9
$SPLINESEGS
 70
8
  9
$HANDSEED
  5
FA
  9
$SURFTAB1
 70
6
  9
$SURFTAB2
 70
6
  9
$SURFTYPE
 70
6
  9
$SURFU
 70
6
  9
$SURFV
 70
6
  9
$UCSBASE
  2

  9
$UCSNAME
  2

  9
$UCSORG
 10
0.0
 20
0.0
 30
0.0
  9
$UCSXDIR
 10
1.0
 20
0.0
 30
0.0
  9
$UCSYDIR
 10
0.0
 20
1.0
 30
0.0
  9
$UCSORTHOREF
  2

  9
$UCSORTHOVIEW
 70
0
  9
$UCSORGTOP
 10
0.0
 20
0.0
 30
0.0
  9
$UCSORGBOTTOM
 10
0.0
 20
0.0
 30
0.0
  9
$UCSORGLEFT
 10
0.0
 20
0.0
 30
0.0
  9
$UCSORGRIGHT
 10
0.0
 20
0.0
 30
0.0
  9
$UCSORGFRONT
 10
0.0
 20
0.0
 30
0.0
  9
$UCSORGBACK
 10
0.0
 20
0.0
 30
0.0
  9
$PUCSBASE
  2

  9
$PUCSNAME
  2

  9
$PUCSORG
 10
0.0
 20
0.0
 30
0.0
  9
$PUCSXDIR
 10
1.0
 20
0.0
 30
0.0
  9
$PUCSYDIR
 10
0.0
 20
1.0
 30
0.0
  9
$PUCSORTHOREF
  2

  9
$PUCSORTHOVIEW
 70
0
  9
$PUCSORGTOP
 10
0.0
 20
0.0
 30
0.0
  9
$PUCSORGBOTTOM
 10
0.0
 20
0.0
 30
0.0
  9
$PUCSORGLEFT
 10
0.0
 20
0.0
 30
0.0
  9
$PUCSORGRIGHT
 10
0.0
 20
0.0
 30
0.0
  9
$PUCSORGFRONT
 10
0.0
 20
0.0
 30
0.0
  9
$PUCSORGBACK
 10
0.0
 20
0.0
 30
0.0
  9
$USERI1
 70
0
  9
$USERI2
 70
0
  9
$USERI3
 70
0
  9
$USERI4
 70
0
  9
$USERI5
 70
0
  9
$USERR1
 40
0.0
  9
$USERR2
 40
0.0
  9
$USERR3
 40
0.0
  9
$USERR4
 40
0.0
  9
$USERR5
 40
0.0
  9
$WORLDVIEW
 70
1
  9
$SHADEDGE
 70
3
  9
$SHADEDIF
 70
70
  9
$TILEMODE
 70
1
  9
$MAXACTVP
 70
64
  9
$PINSBASE
 10
0.0
 20
0.0
 30
0.0
  9
$PLIMCHECK
 70
0
  9
$PEXTMIN
 10
1e+20
 20
1e+20
 30
1e+20
  9
$PEXTMAX
 10
-1e+20
 20
-1e+20
 30
-1e+20
  9
$PLIMMIN
 10
0.0
 20
0.0
  9
$PLIMMAX
 10
420.0
 20
297.0
  9
$UNITMODE
 70
0
  9
$VISRETAIN
 70
1
  9
$PLINEGEN
 70
0
  9
$PSLTSCALE
 70
1
  9
$TREEDEPTH
 70
3020
  9
$CMLSTYLE
  2
Standard
  9
$CMLJUST
 70
0
  9
$CMLSCALE
 40
20.0
  9
$PROXYGRAPHICS
 70
1
  9
$MEASUREMENT
 70
1
  9
$CELWEIGHT
370
-1
  9
$ENDCAPS
280
0
  9
$JOINSTYLE
280
0
  9
$LWDISPLAY
290
0
  9
$INSUNITS
 70
6
  9
$HYPERLINKBASE
  1

  9
$STYLESHEET
  1

  9
$XEDIT
290
1
  9
$CEPSNTYPE
380
0
  9
$PSTYLEMODE
290
1
  9
$FINGERPRINTGUID
  2
E03205C0-DB7B-11EB-9199-244BFE000D71
  9
$VERSIONGUID
  2
E0347754-DB7B-11EB-9A0E-244BFE000D71
  9
$EXTNAMES
290
1
  9
$PSVPSCALE
 40
0.0
  9
$OLESTARTUP
290
0
  9
$SORTENTS
280
127
  9
$INDEXCTL
280
0
  9
$HIDETEXT
280
1
  9
$XCLIPFRAME
280
2
  9
$HALOGAP
280
0
  9
$OBSCOLOR
 70
257
  9
$OBSLTYPE
280
0
  9
$INTERSECTIONDISPLAY
280
0
  9
$INTERSECTIONCOLOR
 70
257
  9
$DIMASSOC
280
2
  9
$PROJECTNAME
  1

  9
$CAMERADISPLAY
290
0
  9
$LENSLENGTH
 40
50.0
  9
$CAMERAHEIGHT
 40
0.0
  9
$STEPSPERSEC
 40
24.0
  9
$STEPSIZE
 40
100.0
  9
$3DDWFPREC
 40
2.0
  9
$PSOLWIDTH
 40
0.005
  9
$PSOLHEIGHT
 40
0.08
  9
$LOFTANG1
 40
1.570796326795
  9
$LOFTANG2
 40
1.570796326795
  9
$LOFTMAG1
 40
0.0
  9
$LOFTMAG2
 40
0.0
  9
$LOFTPARAM
 70
7
  9
$LOFTNORMALS
280
1
  9
$LATITUDE
 40
37.795
  9
$LONGITUDE
 40
-122.394
  9
$NORTHDIRECTION
 40
0.0
  9
$TIMEZONE
 70
-8000
  9
$LIGHTGLYPHDISPLAY
280
1
  9
$TILEMODELIGHTSYNCH
280
1
  9
$CMATERIAL
347
20
  9
$SOLIDHIST
280
0
  9
$SHOWHIST
280
1
  9
$DWFFRAME
280
2
  9
$DGNFRAME
280
2
  9
$REALWORLDSCALE
290
1
  9
$INTERFERECOLOR
 62
256
  9
$CSHADOW
280
0
  9
$SHADOWPLANELOCATION
 40
0.0
  0
ENDSEC
  0
SECTION
  2
CLASSES
  0
CLASS
  1
ACDBDICTIONARYWDFLT
  2
AcDbDictionaryWithDefault
  3
ObjectDBX Classes
 90
0
 91
0
280
0
281
0
  0
CLASS
  1
SUN
  2
AcDbSun
  3
SCENEOE
 90
1153
 91
0
280
0
281
0
  0
CLASS
  1
VISUALSTYLE
  2
AcDbVisualStyle
  3
ObjectDBX Classes
 90
4095
 91
0
280
0
281
0
  0
CLASS
  1
MATERIAL
  2
AcDbMaterial
  3
ObjectDBX Classes
 90
1153
 91
0
280
0
281
0
  0
CLASS
  1
SCALE
  2
AcDbScale
  3
ObjectDBX Classes
 90
1153
 91
0
280
0
281
0
  0
CLASS
  1
TABLESTYLE
  2
AcDbTableStyle
  3
ObjectDBX Classes
 90
4095
 91
0
280
0
281
0
  0
CLASS
  1
MLEADERSTYLE
  2
AcDbMLeaderStyle
  3
ACDB_MLEADERSTYLE_CLASS
 90
4095
 91
0
280
0
281
0
  0
CLASS
  1
DICTIONARYVAR
  2
AcDbDictionaryVar
  3
ObjectDBX Classes
 90
0
 91
0
280
0
281
0
  0
CLASS
  1
CELLSTYLEMAP
  2
AcDbCellStyleMap
  3
ObjectDBX Classes
 90
1152
 91
0
280
0
281
0
  0
CLASS
  1
MENTALRAYRENDERSETTINGS
  2
AcDbMentalRayRenderSettings
  3
SCENEOE
 90
1024
 91
0
280
0
281
0
  0
CLASS
  1
ACDBDETAILVIEWSTYLE
  2
AcDbDetailViewStyle
  3
ObjectDBX Classes
 90
1025
 91
0
280
0
281
0
  0
CLASS
  1
ACDBSECTIONVIEWSTYLE
  2
AcDbSectionViewStyle
  3
ObjectDBX Classes
 90
1025
 91
0
280
0
281
0
  0
CLASS
  1
RASTERVARIABLES
  2
AcDbRasterVariables
  3
ISM
 90
0
 91
0
280
0
281
0
  0
CLASS
  1
LAYOUT
  2
AcDbLayout
  3
ObjectDBX Classes
 90
0
 91
0
280
0
281
0
  0
CLASS
  1
ACDBPLACEHOLDER
  2
AcDbPlaceHolder
  3
ObjectDBX Classes
 90
0
 91
0
280
0
281
0
  0
ENDSEC
  0
SECTION
  2
TABLES
  0
TABLE
  2
VPORT
  5
8
330
0
100
AcDbSymbolTable
 70
1
  0
VPORT
  5
23
330
8
100
AcDbSymbolTableRecord
100
AcDbViewportTableRecord
  2
*Active
 70
0
 10
0.0
 20
0.0
 11
1.0
 21
1.0
 12
70.0
 22
50.0
 13
0.0
 23
0.0
 14
0.5
 24
0.5
 15
0.5
 25
0.5
 16
0.0
 26
0.0
 36
1.0
 17
0.0
 27
0.0
 37
0.0
 40
1.0
 41
1.34
 42
50.0
 43
0.0
 44
0.0
 50
0.0
 51
0.0
 71
0
 72
1000
 73
1
 74
3
 75
0
 76
0
 77
0
 78
0
281
0
 65
0
146
0.0
  0
ENDTAB
  0
TABLE
  2
LTYPE
  5
2
330
0
100
AcDbSymbolTable
 70
3
  0
LTYPE
  5
24
330
2
100
AcDbSymbolTableRecord
100
AcDbLinetypeTableRecord
  2
ByBlock
 70
0
  3

 72
65
 73
0
 40
0.0
  0
LTYPE
  5
25
330
2
100
AcDbSymbolTableRecord
100
AcDbLinetypeTableRecord
  2
ByLayer
 70
0
  3

 72
65
 73
0
 40
0.0
  0
LTYPE
  5
26
330
2
100
AcDbSymbolTableRecord
100
AcDbLinetypeTableRecord
  2
Continuous
 70
0
  3

 72
65
 73
0
 40
0.0
  0
ENDTAB
  0
TABLE
  2
LAYER
  5
1
330
0
100
AcDbSymbolTable
 70
2
  0
LAYER
  5
27
330
1
100
AcDbSymbolTableRecord
100
AcDbLayerTableRecord
  2
0
 70
0
 62
7
  6
Continuous
370
-3
390
13
347
21
  0
LAYER
  5
28
330
1
100
AcDbSymbolTableRecord
100
AcDbLayerTableRecord
  2
Defpoints
 70
0
 62
7
  6
Continuous
290
0
370
-3
390
13
347
21
  0
ENDTAB
  0
TABLE
  2
STYLE
  5
5
330
0
100
AcDbSymbolTable
 70
1
  0
STYLE
  5
29
330
5
100
AcDbSymbolTableRecord
100
AcDbTextStyleTableRecord
  2
Standard
 70
0
 40
0.0
 41
1.0
 50
0.0
 71
0
 42
2.5
  3
txt
  4

  0
ENDTAB
  0
TABLE
  2
VIEW
  5
7
330
0
100
AcDbSymbolTable
 70
0
  0
ENDTAB
  0
TABLE
  2
UCS
  5
6
330
0
100
AcDbSymbolTable
 70
0
  0
ENDTAB
  0
TABLE
  2
APPID
  5
3
330
0
100
AcDbSymbolTable
 70
2
  0
APPID
  5
2A
330
3
100
AcDbSymbolTableRecord
100
AcDbRegAppTableRecord
  2
ACAD
 70
0
  0
APPID
  5
F9
330
3
100
AcDbSymbolTableRecord
100
AcDbRegAppTableRecord
  2
HATCHBACKGROUNDCOLOR
 70
0
  0
ENDTAB
  0
TABLE
  2
DIMSTYLE
  5
4
330
0
100
AcDbSymbolTable
 70
1
100
AcDbDimStyleTable
  0
DIMSTYLE
105
2B
330
4
100
AcDbSymbolTableRecord
100
AcDbDimStyleTableRecord
  2
Standard
 70
0
 40
1.0
 41
2.5
 42
0.625
 43
3.75
 44
1.25
 45
0.0
 46
0.0
 47
0.0
 48
0.0
 49
2.5
140
2.5
141
2.5
142
0.0
143
0.03937007874
144
1.0
145
0.0
146
1.0
147
0.625
148
0.0
 69
0
 70
0
 71
0
 72
0
 73
0
 74
0
 75
0
 76
0
 77
1
 78
8
 79
0
170
0
171
3
172
1
173
0
174
0
175
0
176
0
177
0
178
0
179
0
271
0
272
2
273
2
274
3
275
0
276
0
277
2
278
44
279
0
280
0
281
0
282
0
283
0
284
8
285
0
286
0
288
0
289
3
290
0
371
-2
372
-2
  0
ENDTAB
  0
TABLE
  2
BLOCK_RECORD
  5
9
330
0
100
AcDbSymbolTable
 70
2
  0
BLOCK_RECORD
  5
17
330
9
100
AcDbSymbolTableRecord
100
AcDbBlockTableRecord
  2
*Model_Space
340
1A
 70
0
280
1
281
0
  0
BLOCK_RECORD
  5
1B
330
9
100
AcDbSymbolTableRecord
100
AcDbBlockTableRecord
  2
*Paper_Space
340
1E
 70
0
280
1
281
0
  0
ENDTAB
  0
ENDSEC
  0
SECTION
  2
BLOCKS
  0
BLOCK
  5
18
330
17
100
AcDbEntity
  8
0
100
AcDbBlockBegin
  2
*Model_Space
 70
0
 10
0.0
 20
0.0
 30
0.0
  3
*Model_Space
  1

  0
ENDBLK
  5
19
330
17
100
AcDbEntity
  8
0
100
AcDbBlockEnd
  0
BLOCK
  5
1C
330
1B
100
AcDbEntity
  8
0
100
AcDbBlockBegin
  2
*Paper_Space
 70
0
 10
0.0
 20
0.0
 30
0.0
  3
*Paper_Space
  1

  0
ENDBLK
  5
1D
330
1B
100
AcDbEntity
  8
0
100
AcDbBlockEnd
  0
ENDSEC
  0
SECTION
  2
ENTITIES
  0
LINE
  5
2D
330
17
100
AcDbEntity
  8
0
100
AcDbLine
 10
63.276899962049114
 20
32.873016026887946
 30
0.0
 11
63.276899962049114
 21
32.873016026887946
 31
-5.0
  0
LINE
  5
2E
330
17
100
AcDbEntity
  8
0
100
AcDbLine
 10
63.276899962049114
 20
22.95980757043886
 30
0.0
 11
63.276899962049114
 21
22.95980757043886
 31
-5.0
  0
LINE
  5
2F
330
17
100
AcDbEntity
  8
0
100
AcDbLine
 10
63.276899962049065
 20
32.873016026887946
 30
0.0
 11
63.27689996204907
 21
22.959807570438855
 31
0.0
  0
LINE
  5
30
330
17
100
AcDbEntity
  8
0
100
AcDbLine
 10
63.276899962049065
 20
32.873016026887946
 30
-5.0
 11
63.27689996204907
 21
22.959807570438855
 31
-5.0
  0
LINE
  5
31
330
17
100
AcDbEntity
  8
0
100
AcDbLine
 10
63.07770963531988
 20
21.478434877319955
 30
0.0
 11
63.07770963531988
 21
21.478434877319955
 31
-5.0
  0
LINE
  5
32
330
17
100
AcDbEntity
  8
0
100
AcDbLine
 10
63.07770963531988
 20
21.478434877319955
 30
0.0
 11
63.276899962049114
 21
22.95980757043886
 31
0.0
  0
LINE
  5
33
330
17
100
AcDbEntity
  8
0
100
AcDbLine
 10
63.07770963531988
 20
21.478434877319955
 30
-5.0
 11
63.276899962049114
 21
22.95980757043886
 31
-5.0
  0
LINE
  5
34
330
17
100
AcDbEntity
  8
0
100
AcDbLine
 10
61.495833254446595
 20
3.9156828402733774
 30
0.0
 11
61.495833254446595
 21
3.9156828402733774
 31
-5.0
  0
LINE
  5
35
330
17
100
AcDbEntity
  8
0
100
AcDbLine
 10
61.495833254446595
 20
3.915682840273377
 30
0.0
 11
63.077709635319884
 21
21.478434877319955
 31
0.0
  0
LINE
  5
36
330
17
100
AcDbEntity
  8
0
100
AcDbLine
 10
61.495833254446595
 20
3.915682840273377
 30
-5.0
 11
63.077709635319884
 21
21.478434877319955
 31
-5.0
  0
LINE
  5
37
330
17
100
AcDbEntity
  8
0
100
AcDbLine
 10
61.15643049159652
 20
-3.5
 30
0.0
 11
61.15643049159652
 21
-3.5
 31
-5.0
  0
LINE
  5
38
330
17
100
AcDbEntity
  8
0
100
AcDbLine
 10
61.15643049159651
 20
-3.5
 30
-2.220446049250313e-16
 11
61.495833254446595
 21
3.9156828402733774
 31
-2.220446049250313e-16
  0
LINE
  5
39
330
17
100
AcDbEntity
  8
0
100
AcDbLine
 10
61.15643049159651
 20
-3.5
 30
-5.0
 11
61.495833254446595
 21
3.9156828402733774
 31
-5.0
  0
LINE
  5
3A
330
17
100
AcDbEntity
  8
0
100
AcDbLine
 10
61.15643049159652
 20
-20.5
 30
0.0
 11
61.15643049159652
 21
-20.5
 31
-5.0
  0
LINE
  5
3B
330
17
100
AcDbEntity
  8
0
100
AcDbLine
 10
61.156430491596524
 20
-3.5
 30
2.220446049250313e-16
 11
61.156430491596524
 21
-20.5
 31
2.220446049250313e-16
  0
LINE
  5
3C
330
17
100
AcDbEntity
  8
0
100
AcDbLine
 10
61.156430491596524
 20
-3.5
 30
-5.0
 11
61.156430491596524
 21
-20.5
 31
-5.0
  0
LINE
  5
3D
330
17
100
AcDbEntity
  8
0
100
AcDbLine
 10
61.4958332544466
 20
-27.915682840273377
 30
0.0
 11
61.4958332544466
 21
-27.915682840273377
 31
-5.0
  0
LINE
  5
3E
330
17
100
AcDbEntity
  8
0
100
AcDbLine
 10
61.4958332544466
 20
-27.915682840273377
 30
-1.3877787807814457e-17
 11
61.156430491596524
 21
-20.5
 31
-1.3877787807814457e-17
  0
LINE
  5
3F
330
17
100
AcDbEntity
  8
0
100
AcDbLine
 10
61.4958332544466
 20
-27.915682840273377
 30
-5.0
 11
61.156430491596524
 21
-20.5
 31
-5.0
  0
LINE
  5
40
330
17
100
AcDbEntity
  8
0
100
AcDbLine
 10
63.0963199456831
 20
-45.6850554895205
 30
0.0
 11
63.0963199456831
 21
-45.6850554895205
 31
-5.0
  0
LINE
  5
41
330
17
100
AcDbEntity
  8
0
100
AcDbLine
 10
61.49583325444659
 20
-27.915682840273377
 30
0.0
 11
63.096319945683085
 21
-45.6850554895205
 31
0.0
  0
LINE
  5
42
330
17
100
AcDbEntity
  8
0
100
AcDbLine
 10
61.49583325444659
 20
-27.915682840273377
 30
-5.0
 11
63.096319945683085
 21
-45.6850554895205
 31
-5.0
  0
LINE
  5
43
330
17
100
AcDbEntity
  8
0
100
AcDbLine
 10
61.92716898012849
 20
-47.250915085412196
 30
0.0
 11
61.92716898012849
 21
-47.250915085412196
 31
-5.0
  0
LINE
  5
44
330
17
100
AcDbEntity
  8
0
100
AcDbLine
 10
61.927168980128485
 20
-47.250915085412196
 30
-4.440892098500626e-16
 11
63.09631994568309
 21
-45.685055489520494
 31
-4.440892098500626e-16
  0
LINE
  5
45
330
17
100
AcDbEntity
  8
0
100
AcDbLine
 10
61.927168980128485
 20
-47.250915085412196
 30
-5.0
 11
63.09631994568309
 21
-45.685055489520494
 31
-5.0
  0
LINE
  5
46
330
17
100
AcDbEntity
  8
0
100
AcDbLine
 10
53.7406115668855
 20
-56.7739411287129
 30
0.0
 11
53.7406115668855
 21
-56.7739411287129
 31
-5.0
  0
LINE
  5
47
330
17
100
AcDbEntity
  8
0
100
AcDbLine
 10
61.92716898012849
 20
-47.250915085412196
 30
1.1102230246251565e-16
 11
53.740611566885505
 21
-56.7739411287129
 31
1.1102230246251565e-16
  0
LINE
  5
48
330
17
100
AcDbEntity
  8
0
100
AcDbLine
 10
61.92716898012849
 20
-47.250915085412196
 30
-5.0
 11
53.740611566885505
 21
-56.7739411287129
 31
-5.0
  0
LINE
  5
49
330
17
100
AcDbEntity
  8
0
100
AcDbLine
 10
44.363830359665
 20
-56.99291963715846
 30
0.0
 11
44.363830359665
 21
-56.99291963715846
 31
-5.0
  0
LINE
  5
4A
330
17
100
AcDbEntity
  8
0
100
AcDbLine
 10
53.740611566885505
 20
-56.7739411287129
 30
2.220446049250313e-16
 11
44.363830359665
 21
-56.992919637158465
 31
2.220446049250313e-16
  0
LINE
  5
4B
330
17
100
AcDbEntity
  8
0
100
AcDbLine
 10
53.740611566885505
 20
-56.7739411287129
 30
-5.0
 11
44.363830359665
 21
-56.992919637158465
 31
-5.0
  0
LINE
  5
4C
330
17
100
AcDbEntity
  8
0
100
AcDbLine
 10
23.123920802978407
 20
-56.992919637158465
 30
0.0
 11
23.123920802978407
 21
-56.992919637158465
 31
-5.0
  0
LINE
  5
4D
330
17
100
AcDbEntity
  8
0
100
AcDbLine
 10
44.363830359665
 20
-56.99291963715845
 30
0.0
 11
23.123920802978407
 21
-56.99291963715845
 31
0.0
  0
LINE
  5
4E
330
17
100
AcDbEntity
  8
0
100
AcDbLine
 10
44.363830359665
 20
-56.99291963715845
 30
-5.0
 11
23.123920802978407
 21
-56.99291963715845
 31
-5.0
  0
LINE
  5
4F
330
17
100
AcDbEntity
  8
0
100
AcDbLine
 10
15.137318952356724
 20
-67.71965130554412
 30
0.0
 11
15.137318952356724
 21
-67.71965130554412
 31
-5.0
  0
LINE
  5
50
330
17
100
AcDbEntity
  8
0
100
AcDbLine
 10
23.12392080297841
 20
-56.992919637158465
 30
0.0
 11
15.13731895235672
 21
-67.71965130554412
 31
0.0
  0
LINE
  5
51
330
17
100
AcDbEntity
  8
0
100
AcDbLine
 10
23.12392080297841
 20
-56.992919637158465
 30
-5.0
 11
15.13731895235672
 21
-67.71965130554412
 31
-5.0
  0
LINE
  5
52
330
17
100
AcDbEntity
  8
0
100
AcDbLine
 10
-6.064754190958698
 20
-67.71965130554412
 30
0.0
 11
-6.064754190958698
 21
-67.71965130554412
 31
-5.0
  0
LINE
  5
53
330
17
100
AcDbEntity
  8
0
100
AcDbLine
 10
-6.064754190958698
 20
-67.7196513055441
 30
0.0
 11
15.137318952356726
 21
-67.7196513055441
 31
0.0
  0
LINE
  5
54
330
17
100
AcDbEntity
  8
0
100
AcDbLine
 10
-6.064754190958698
 20
-67.7196513055441
 30
-5.0
 11
15.137318952356726
 21
-67.7196513055441
 31
-5.0
  0
LINE
  5
55
330
17
100
AcDbEntity
  8
0
100
AcDbLine
 10
-14.783073591591357
 20
-68.9794255553484
 30
8.239936510889834e-17
 11
-14.783073591591357
 21
-68.9794255553484
 31
-5.0
  0
LINE
  5
56
330
17
100
AcDbEntity
  8
0
100
AcDbLine
 10
-14.783073591591355
 20
-68.97942555534841
 30
-2.220446049250313e-16
 11
-6.064754190958698
 21
-67.71965130554413
 31
-2.220446049250313e-16
  0
LINE
  5
57
330
17
100
AcDbEntity
  8
0
100
AcDbLine
 10
-14.783073591591355
 20
-68.97942555534841
 30
-5.0
 11
-6.064754190958698
 21
-67.71965130554413
 31
-5.0
  0
LINE
  5
58
330
17
100
AcDbEntity
  8
0
100
AcDbLine
 10
-20.781092142525324
 20
-70.8461956287835
 30
1.6132928326584306e-16
 11
-20.781092142525324
 21
-70.8461956287835
 31
-5.0
  0
ARC
  5
59
330
17
100
AcDbEntity
  8
0
100
AcDbCircle
 10
-18.63502455076737
 20
-67.17226952889273
 30
0.0
 40
4.254801886792453
100
AcDbArc
 50
239.70931850813417
 51
334.86621695230343
  0
ARC
  5
5A
330
17
100
AcDbEntity
  8
0
100
AcDbCircle
 10
-18.63502455076737
 20
-67.17226952889273
 30
-5.0
 40
4.254801886792453
100
AcDbArc
 50
239.70931850813417
 51
334.86621695230343
  0
LINE
  5
5B
330
17
100
AcDbEntity
  8
0
100
AcDbLine
 10
-30.194784168495154
 20
-77.19242165105403
 30
0.0
 11
-30.194784168495154
 21
-77.19242165105403
 31
-5.0
  0
LINE
  5
5C
330
17
100
AcDbEntity
  8
0
100
AcDbLine
 10
-30.19478416849516
 20
-77.19242165105403
 30
0.0
 11
-20.78109214252533
 21
-70.8461956287835
 31
0.0
  0
LINE
  5
5D
330
17
100
AcDbEntity
  8
0
100
AcDbLine
 10
-30.19478416849516
 20
-77.19242165105403
 30
-5.0
 11
-20.78109214252533
 21
-70.8461956287835
 31
-5.0
  0
LINE
  5
5E
330
17
100
AcDbEntity
  8
0
100
AcDbLine
 10
-39.62526920000168
 20
-87.66603634795456
 30
0.0
 11
-39.62526920000168
 21
-87.66603634795456
 31
-5.0
  0
LINE
  5
5F
330
17
100
AcDbEntity
  8
0
100
AcDbLine
 10
-39.62526920000168
 20
-87.66603634795456
 30
0.0
 11
-30.194784168495154
 21
-77.19242165105403
 31
0.0
  0
LINE
  5
60
330
17
100
AcDbEntity
  8
0
100
AcDbLine
 10
-39.62526920000168
 20
-87.66603634795456
 30
-5.0
 11
-30.194784168495154
 21
-77.19242165105403
 31
-5.0
  0
LINE
  5
61
330
17
100
AcDbEntity
  8
0
100
AcDbLine
 10
-38.409545900060515
 20
-92.62258477515027
 30
0.0
 11
-38.409545900060515
 21
-92.62258477515027
 31
-5.0
  0
LINE
  5
62
330
17
100
AcDbEntity
  8
0
100
AcDbLine
 10
-39.62526920000168
 20
-87.66603634795456
 30
0.0
 11
-38.40954590006052
 21
-92.62258477515027
 31
0.0
  0
LINE
  5
63
330
17
100
AcDbEntity
  8
0
100
AcDbLine
 10
-39.62526920000168
 20
-87.66603634795456
 30
-5.0
 11
-38.40954590006052
 21
-92.62258477515027
 31
-5.0
  0
LINE
  5
64
330
17
100
AcDbEntity
  8
0
100
AcDbLine
 10
-42.0165528715593
 20
-97.58720395773469
 30
0.0
 11
-42.0165528715593
 21
-97.58720395773469
 31
-5.0
  0
LINE
  5
65
330
17
100
AcDbEntity
  8
0
100
AcDbLine
 10
-38.409545900060515
 20
-92.62258477515027
 30
0.0
 11
-42.016552871559114
 21
-97.58720395773481
 31
0.0
  0
LINE
  5
66
330
17
100
AcDbEntity
  8
0
100
AcDbLine
 10
-38.409545900060515
 20
-92.62258477515027
 30
-5.0
 11
-42.016552871559114
 21
-97.58720395773481
 31
-5.0
  0
LINE
  5
67
330
17
100
AcDbEntity
  8
0
100
AcDbLine
 10
-47.05818486734067
 20
-102.6506459700952
 30
0.0
 11
-47.05818486734067
 21
-102.6506459700952
 31
-5.0
  0
LINE
  5
68
330
17
100
AcDbEntity
  8
0
100
AcDbLine
 10
-47.058184867340685
 20
-102.6506459700952
 30
0.0
 11
-42.0165528715593
 21
-97.58720395773469
 31
0.0
  0
LINE
  5
69
330
17
100
AcDbEntity
  8
0
100
AcDbLine
 10
-47.058184867340685
 20
-102.6506459700952
 30
-5.0
 11
-42.0165528715593
 21
-97.58720395773469
 31
-5.0
  0
LINE
  5
6A
330
17
100
AcDbEntity
  8
0
100
AcDbLine
 10
-51.758520192114645
 20
-105.36990479385392
 30
0.0
 11
-51.758520192114645
 21
-105.36990479385392
 31
-5.0
  0
LINE
  5
6B
330
17
100
AcDbEntity
  8
0
100
AcDbLine
 10
-47.05818486734067
 20
-102.6506459700952
 30
-4.440892098500626e-16
 11
-51.758520192114645
 21
-105.36990479385392
 31
-4.440892098500626e-16
  0
LINE
  5
6C
330
17
100
AcDbEntity
  8
0
100
AcDbLine
 10
-47.05818486734067
 20
-102.6506459700952
 30
-5.0
 11
-51.758520192114645
 21
-105.36990479385392
 31
-5.0
  0
LINE
  5
6D
330
17
100
AcDbEntity
  8
0
100
AcDbLine
 10
-55.08352425616282
 20
-105.30017764347606
 30
0.0
 11
-55.08352425616282
 21
-105.30017764347606
 31
-5.0
  0
LINE
  5
6E
330
17
100
AcDbEntity
  8
0
100
AcDbLine
 10
-51.758520192114645
 20
-105.36990479385398
 30
-2.220446049250313e-16
 11
-55.08352425616282
 21
-105.3001776434761
 31
-2.220446049250313e-16
  0
LINE
  5
6F
330
17
100
AcDbEntity
  8
0
100
AcDbLine
 10
-51.758520192114645
 20
-105.36990479385398
 30
-5.0
 11
-55.08352425616282
 21
-105.3001776434761
 31
-5.0
  0
LINE
  5
70
330
17
100
AcDbEntity
  8
0
100
AcDbLine
 10
-64.5296050465056
 20
-104.90194628151501
 30
0.0
 11
-64.5296050465056
 21
-104.90194628151501
 31
-5.0
  0
LINE
  5
71
330
17
100
AcDbEntity
  8
0
100
AcDbLine
 10
-55.08352425616282
 20
-105.30017764347608
 30
2.220446049250313e-16
 11
-64.5296050465056
 21
-104.90194628151502
 31
2.220446049250313e-16
  0
LINE
  5
72
330
17
100
AcDbEntity
  8
0
100
AcDbLine
 10
-55.08352425616282
 20
-105.30017764347608
 30
-5.0
 11
-64.5296050465056
 21
-104.90194628151502
 31
-5.0
  0
LINE
  5
73
330
17
100
AcDbEntity
  8
0
100
AcDbLine
 10
-77.79714017021251
 20
-93.17106166568492
 30
0.0
 11
-77.79714017021251
 21
-93.17106166568492
 31
-5.0
  0
LINE
  5
74
330
17
100
AcDbEntity
  8
0
100
AcDbLine
 10
-77.79714017021253
 20
-93.17106166568493
 30
8.881784197001252e-16
 11
-64.5296050465056
 21
-104.90194628151501
 31
8.881784197001252e-16
  0
LINE
  5
75
330
17
100
AcDbEntity
  8
0
100
AcDbLine
 10
-77.79714017021253
 20
-93.17106166568493
 30
-4.999999999999999
 11
-64.5296050465056
 21
-104.90194628151501
 31
-4.999999999999999
  0
LINE
  5
76
330
17
100
AcDbEntity
  8
0
100
AcDbLine
 10
-81.20187815590454
 20
-92.69288994491673
 30
0.0
 11
-81.20187815590454
 21
-92.69288994491673
 31
-5.0
  0
LINE
  5
77
330
17
100
AcDbEntity
  8
0
100
AcDbLine
 10
-77.79714017021251
 20
-93.17106166568492
 30
0.0
 11
-81.20187815590454
 21
-92.69288994491671
 31
0.0
  0
LINE
  5
78
330
17
100
AcDbEntity
  8
0
100
AcDbLine
 10
-77.79714017021251
 20
-93.17106166568492
 30
-5.0
 11
-81.20187815590454
 21
-92.69288994491671
 31
-5.0
  0
LINE
  5
79
330
17
100
AcDbEntity
  8
0
100
AcDbLine
 10
-82.74402961912436
 20
-91.92239584277483
 30
0.0
 11
-82.74402961912436
 21
-91.92239584277483
 31
-5.0
  0
LINE
  5
7A
330
17
100
AcDbEntity
  8
0
100
AcDbLine
 10
-82.74402961912436
 20
-91.92239584277483
 30
4.440892098500626e-16
 11
-81.20187815590454
 21
-92.69288994491673
 31
4.440892098500626e-16
  0
LINE
  5
7B
330
17
100
AcDbEntity
  8
0
100
AcDbLine
 10
-82.74402961912436
 20
-91.92239584277483
 30
-5.0
 11
-81.20187815590454
 21
-92.69288994491673
 31
-5.0
  0
LINE
  5
7C
330
17
100
AcDbEntity
  8
0
100
AcDbLine
 10
-96.2143581608445
 20
-80.85996386160532
 30
0.0
 11
-96.2143581608445
 21
-80.85996386160532
 31
-5.0
  0
LINE
  5
7D
330
17
100
AcDbEntity
  8
0
100
AcDbLine
 10
-96.2143581608445
 20
-80.85996386160532
 30
2.220446049250313e-16
 11
-82.74402961912435
 21
-91.92239584277482
 31
2.220446049250313e-16
  0
LINE
  5
7E
330
17
100
AcDbEntity
  8
0
100
AcDbLine
 10
-96.2143581608445
 20
-80.85996386160532
 30
-5.0
 11
-82.74402961912435
 21
-91.92239584277482
 31
-5.0
  0
LINE
  5
7F
330
17
100
AcDbEntity
  8
0
100
AcDbLine
 10
-96.90777503832122
 20
-76.37544757807376
 30
0.0
 11
-96.90777503832122
 21
-76.37544757807376
 31
-5.0
  0
LINE
  5
80
330
17
100
AcDbEntity
  8
0
100
AcDbLine
 10
-96.9077750383212
 20
-76.37544757807376
 30
0.0
 11
-96.2143581608445
 21
-80.85996386160532
 31
0.0
  0
LINE
  5
81
330
17
100
AcDbEntity
  8
0
100
AcDbLine
 10
-96.9077750383212
 20
-76.37544757807376
 30
-5.0
 11
-96.2143581608445
 21
-80.85996386160532
 31
-5.0
  0
LINE
  5
82
330
17
100
AcDbEntity
  8
0
100
AcDbLine
 10
-97.53706288008365
 20
-71.18552561520458
 30
0.0
 11
-97.53706288008365
 21
-71.18552561520458
 31
-5.0
  0
LINE
  5
83
330
17
100
AcDbEntity
  8
0
100
AcDbLine
 10
-97.53706288008367
 20
-71.18552561520458
 30
0.0
 11
-96.90777503832123
 21
-76.37544757807376
 31
0.0
  0
LINE
  5
84
330
17
100
AcDbEntity
  8
0
100
AcDbLine
 10
-97.53706288008367
 20
-71.18552561520458
 30
-5.0
 11
-96.90777503832123
 21
-76.37544757807376
 31
-5.0
  0
LINE
  5
85
330
17
100
AcDbEntity
  8
0
100
AcDbLine
 10
-91.31918027501872
 20
-58.82545792620566
 30
8.881784197001252e-16
 11
-91.31918027501872
 21
-58.82545792620566
 31
-4.999999999999999
  0
LINE
  5
86
330
17
100
AcDbEntity
  8
0
100
AcDbLine
 10
-97.53706288008368
 20
-71.1855256152046
 30
0.0
 11
-91.31918027501874
 21
-58.82545792620565
 31
0.0
  0
LINE
  5
87
330
17
100
AcDbEntity
  8
0
100
AcDbLine
 10
-97.53706288008368
 20
-71.1855256152046
 30
-5.0
 11
-91.31918027501874
 21
-58.82545792620565
 31
-5.0
  0
LINE
  5
88
330
17
100
AcDbEntity
  8
0
100
AcDbLine
 10
-86.81627149484552
 20
-53.515210692397865
 30
0.0
 11
-86.81627149484552
 21
-53.515210692397865
 31
-5.0
  0
LINE
  5
89
330
17
100
AcDbEntity
  8
0
100
AcDbLine
 10
-91.31918027501872
 20
-58.825457926205644
 30
4.440892098500626e-16
 11
-86.81627149484554
 21
-53.51521069239785
 31
4.440892098500626e-16
  0
LINE
  5
8A
330
17
100
AcDbEntity
  8
0
100
AcDbLine
 10
-91.31918027501872
 20
-58.825457926205644
 30
-5.0
 11
-86.81627149484554
 21
-53.51521069239785
 31
-5.0
  0
LINE
  5
8B
330
17
100
AcDbEntity
  8
0
100
AcDbLine
 10
-86.62105542065271
 20
-53.26534551176517
 30
0.0
 11
-86.62105542065271
 21
-53.26534551176517
 31
-5.0
  0
LINE
  5
8C
330
17
100
AcDbEntity
  8
0
100
AcDbLine
 10
-86.81627149484554
 20
-53.51521069239786
 30
0.0
 11
-86.62105542065271
 21
-53.26534551176516
 31
0.0
  0
LINE
  5
8D
330
17
100
AcDbEntity
  8
0
100
AcDbLine
 10
-86.81627149484554
 20
-53.51521069239786
 30
-5.0
 11
-86.62105542065271
 21
-53.26534551176516
 31
-5.0
  0
LINE
  5
8E
330
17
100
AcDbEntity
  8
0
100
AcDbLine
 10
-90.37270490065495
 20
-43.135303092897836
 30
0.0
 11
-90.37270490065495
 21
-43.135303092897836
 31
-5.0
  0
LINE
  5
8F
330
17
100
AcDbEntity
  8
0
100
AcDbLine
 10
-90.37270490065494
 20
-43.13530309289783
 30
4.440892098500626e-16
 11
-86.62105542065271
 21
-53.265345511765176
 31
4.440892098500626e-16
  0
LINE
  5
90
330
17
100
AcDbEntity
  8
0
100
AcDbLine
 10
-90.37270490065494
 20
-43.13530309289783
 30
-5.0
 11
-86.62105542065271
 21
-53.265345511765176
 31
-5.0
  0
LINE
  5
91
330
17
100
AcDbEntity
  8
0
100
AcDbLine
 10
-81.43630952553946
 20
-35.63677702958404
 30
0.0
 11
-81.43630952553946
 21
-35.63677702958404
 31
-5.0
  0
LINE
  5
92
330
17
100
AcDbEntity
  8
0
100
AcDbLine
 10
-90.37270490065549
 20
-43.1353030928972
 30
0.0
 11
-81.43630952553943
 21
-35.63677702958401
 31
0.0
  0
LINE
  5
93
330
17
100
AcDbEntity
  8
0
100
AcDbLine
 10
-90.37270490065549
 20
-43.1353030928972
 30
-5.0
 11
-81.43630952553943
 21
-35.63677702958401
 31
-5.0
  0
LINE
  5
94
330
17
100
AcDbEntity
  8
0
100
AcDbLine
 10
-89.0906035819453
 20
-31.0684153875998
 30
0.0
 11
-89.0906035819453
 21
-31.0684153875998
 31
-5.0
  0
LINE
  5
95
330
17
100
AcDbEntity
  8
0
100
AcDbLine
 10
-81.43630952553946
 20
-35.636777029584046
 30
0.0
 11
-89.09060358194532
 21
-31.06841538759982
 31
0.0
  0
LINE
  5
96
330
17
100
AcDbEntity
  8
0
100
AcDbLine
 10
-81.43630952553946
 20
-35.636777029584046
 30
-5.0
 11
-89.09060358194532
 21
-31.06841538759982
 31
-5.0
  0
LINE
  5
97
330
17
100
AcDbEntity
  8
0
100
AcDbLine
 10
-89.66307326546342
 20
-26.79543644544924
 30
-2.96637714392034e-16
 11
-89.66307326546342
 21
-26.79543644544924
 31
-5.0
  0
LINE
  5
98
330
17
100
AcDbEntity
  8
0
100
AcDbLine
 10
-89.09060358194529
 20
-31.068415387599796
 30
-3.552713678800501e-15
 11
-89.66307326546342
 21
-26.79543644544924
 31
-3.552713678800501e-15
  0
LINE
  5
99
330
17
100
AcDbEntity
  8
0
100
AcDbLine
 10
-89.09060358194529
 20
-31.068415387599796
 30
-5.0000000000000036
 11
-89.66307326546342
 21
-26.79543644544924
 31
-5.0000000000000036
  0
LINE
  5
9A
330
17
100
AcDbEntity
  8
0
100
AcDbLine
 10
-90.79265188970106
 20
-18.364132895524527
 30
-6.908536243077634e-16
 11
-90.79265188970106
 21
-18.364132895524527
 31
-5.000000000000001
  0
ARC
  5
9B
330
17
100
AcDbEntity
  8
0
100
AcDbCircle
 10
-90.11646463655286
 20
-22.564860200955415
 30
0.0
 40
4.254801886792453
100
AcDbArc
 50
99.14440755371615
 51
276.1170479780457
  0
ARC
  5
9C
330
17
100
AcDbEntity
  8
0
100
AcDbCircle
 10
-90.11646463655286
 20
-22.564860200955415
 30
-5.0
 40
4.254801886792453
100
AcDbArc
 50
99.14440755371615
 51
276.1170479780457
  0
LINE
  5
9D
330
17
100
AcDbEntity
  8
0
100
AcDbLine
 10
-91.34232569116041
 20
-14.261305014311034
 30
0.0
 11
-91.34232569116041
 21
-14.261305014311034
 31
-5.0
  0
LINE
  5
9E
330
17
100
AcDbEntity
  8
0
100
AcDbLine
 10
-90.79265188970105
 20
-18.364132895524524
 30
-3.552713678800501e-15
 11
-91.3423256911604
 21
-14.261305014311032
 31
-3.552713678800501e-15
  0
LINE
  5
9F
330
17
100
AcDbEntity
  8
0
100
AcDbLine
 10
-90.79265188970105
 20
-18.364132895524524
 30
-5.0000000000000036
 11
-91.3423256911604
 21
-14.261305014311032
 31
-5.0000000000000036
  0
LINE
  5
A0
330
17
100
AcDbEntity
  8
0
100
AcDbLine
 10
-91.70182233123599
 20
-8.799999999999999
 30
0.0
 11
-91.70182233123599
 21
-8.799999999999999
 31
-5.0
  0
LINE
  5
A1
330
17
100
AcDbEntity
  8
0
100
AcDbLine
 10
-91.701822331236
 20
-8.799999999999999
 30
0.0
 11
-91.34232569116043
 21
-14.261305014311034
 31
0.0
  0
LINE
  5
A2
330
17
100
AcDbEntity
  8
0
100
AcDbLine
 10
-91.701822331236
 20
-8.799999999999999
 30
-5.0
 11
-91.34232569116043
 21
-14.261305014311034
 31
-5.0
  0
LINE
  5
A3
330
17
100
AcDbEntity
  8
0
100
AcDbLine
 10
-91.70182233123599
 20
8.799999999999999
 30
0.0
 11
-91.70182233123599
 21
8.799999999999999
 31
-5.0
  0
LINE
  5
A4
330
17
100
AcDbEntity
  8
0
100
AcDbLine
 10
-91.70182233123599
 20
8.799999999999997
 30
0.0
 11
-91.70182233123599
 21
-8.8
 31
0.0
  0
LINE
  5
A5
330
17
100
AcDbEntity
  8
0
100
AcDbLine
 10
-91.70182233123599
 20
8.799999999999997
 30
-5.0
 11
-91.70182233123599
 21
-8.8
 31
-5.0
  0
LINE
  5
A6
330
17
100
AcDbEntity
  8
0
100
AcDbLine
 10
-91.34232569116041
 20
14.261305014311034
 30
0.0
 11
-91.34232569116041
 21
14.261305014311034
 31
-5.0
  0
LINE
  5
A7
330
17
100
AcDbEntity
  8
0
100
AcDbLine
 10
-91.70182233123599
 20
8.799999999999999
 30
0.0
 11
-91.34232569116041
 21
14.261305014311034
 31
0.0
  0
LINE
  5
A8
330
17
100
AcDbEntity
  8
0
100
AcDbLine
 10
-91.70182233123599
 20
8.799999999999999
 30
-5.0
 11
-91.34232569116041
 21
14.261305014311034
 31
-5.0
  0
LINE
  5
A9
330
17
100
AcDbEntity
  8
0
100
AcDbLine
 10
-89.0906035819453
 20
31.0684153875998
 30
0.0
 11
-89.0906035819453
 21
31.0684153875998
 31
-5.0
  0
LINE
  5
AA
330
17
100
AcDbEntity
  8
0
100
AcDbLine
 10
-89.09060358194532
 20
31.068415387599806
 30
0.0
 11
-91.34232569116043
 21
14.261305014311038
 31
0.0
  0
LINE
  5
AB
330
17
100
AcDbEntity
  8
0
100
AcDbLine
 10
-89.09060358194532
 20
31.068415387599806
 30
-5.0
 11
-91.34232569116043
 21
14.261305014311038
 31
-5.0
  0
LINE
  5
AC
330
17
100
AcDbEntity
  8
0
100
AcDbLine
 10
-88.03661272249312
 20
36.157542115555536
 30
0.0
 11
-88.03661272249312
 21
36.157542115555536
 31
-5.0
  0
LINE
  5
AD
330
17
100
AcDbEntity
  8
0
100
AcDbLine
 10
-89.09060358194533
 20
31.068415387599806
 30
-3.552713678800501e-15
 11
-88.03661272249315
 21
36.15754211555554
 31
-3.552713678800501e-15
  0
LINE
  5
AE
330
17
100
AcDbEntity
  8
0
100
AcDbLine
 10
-89.09060358194533
 20
31.068415387599806
 30
-5.0000000000000036
 11
-88.03661272249315
 21
36.15754211555554
 31
-5.0000000000000036
  0
LINE
  5
AF
330
17
100
AcDbEntity
  8
0
100
AcDbLine
 10
-83.68661938691231
 20
51.226387989108495
 30
0.0
 11
-83.68661938691231
 21
51.226387989108495
 31
-5.0
  0
LINE
  5
B0
330
17
100
AcDbEntity
  8
0
100
AcDbLine
 10
-83.68661938691233
 20
51.226387989108495
 30
0.0
 11
-88.03661272249313
 21
36.157542115555536
 31
0.0
  0
LINE
  5
B1
330
17
100
AcDbEntity
  8
0
100
AcDbLine
 10
-83.68661938691233
 20
51.226387989108495
 30
-5.0
 11
-88.03661272249313
 21
36.157542115555536
 31
-5.0
  0
LINE
  5
B2
330
17
100
AcDbEntity
  8
0
100
AcDbLine
 10
-82.00996192270622
 20
55.59652143691309
 30
0.0
 11
-82.00996192270622
 21
55.59652143691309
 31
-5.0
  0
LINE
  5
B3
330
17
100
AcDbEntity
  8
0
100
AcDbLine
 10
-82.00996192270621
 20
55.596521436913086
 30
0.0
 11
-83.6866193869123
 21
51.22638798910849
 31
0.0
  0
LINE
  5
B4
330
17
100
AcDbEntity
  8
0
100
AcDbLine
 10
-82.00996192270621
 20
55.596521436913086
 30
-5.0
 11
-83.6866193869123
 21
51.22638798910849
 31
-5.0
  0
LINE
  5
B5
330
17
100
AcDbEntity
  8
0
100
AcDbLine
 10
-80.85590769734141
 20
57.90463471810482
 30
-5.854691731421724e-17
 11
-80.85590769734141
 21
57.90463471810482
 31
-5.0
  0
LINE
  5
B6
330
17
100
AcDbEntity
  8
0
100
AcDbLine
 10
-80.8559076973414
 20
57.904634718104816
 30
0.0
 11
-82.0099619227062
 21
55.59652143691308
 31
0.0
  0
LINE
  5
B7
330
17
100
AcDbEntity
  8
0
100
AcDbLine
 10
-80.8559076973414
 20
57.904634718104816
 30
-5.0
 11
-82.0099619227062
 21
55.59652143691308
 31
-5.0
  0
LINE
  5
B8
330
17
100
AcDbEntity
  8
0
100
AcDbLine
 10
-77.05219597881062
 20
65.51207407615611
 30
2.936019483090746e-16
 11
-77.05219597881062
 21
65.51207407615611
 31
-5.0
  0
ARC
  5
B9
330
17
100
AcDbEntity
  8
0
100
AcDbCircle
 10
-78.8340518213266
 20
61.64835451434236
 30
0.0
 40
4.254801886792453
100
AcDbArc
 50
65.24196875799869
 51
241.62802481563187
  0
ARC
  5
BA
330
17
100
AcDbEntity
  8
0
100
AcDbCircle
 10
-78.8340518213266
 20
61.64835451434236
 30
-5.0
 40
4.254801886792453
100
AcDbArc
 50
65.24196875799869
 51
241.62802481563187
  0
LINE
  5
BB
330
17
100
AcDbEntity
  8
0
100
AcDbLine
 10
-75.85814171994696
 20
67.90018759177163
 30
0.0
 11
-75.85814171994696
 21
67.90018759177163
 31
-5.0
  0
LINE
  5
BC
330
17
100
AcDbEntity
  8
0
100
AcDbLine
 10
-75.85814171994693
 20
67.90018759177161
 30
0.0
 11
-77.05219597881062
 21
65.51207407615611
 31
0.0
  0
LINE
  5
BD
330
17
100
AcDbEntity
  8
0
100
AcDbLine
 10
-75.85814171994693
 20
67.90018759177161
 30
-5.0
 11
-77.05219597881062
 21
65.51207407615611
 31
-5.0
  0
LINE
  5
BE
330
17
100
AcDbEntity
  8
0
100
AcDbLine
 10
-66.35814171994696
 20
78.40018759177163
 30
0.0
 11
-66.35814171994696
 21
78.40018759177163
 31
-5.0
  0
LINE
  5
BF
330
17
100
AcDbEntity
  8
0
100
AcDbLine
 10
-75.85814171994696
 20
67.90018759177161
 30
0.0
 11
-66.35814171994696
 21
78.40018759177161
 31
0.0
  0
LINE
  5
C0
330
17
100
AcDbEntity
  8
0
100
AcDbLine
 10
-75.85814171994696
 20
67.90018759177161
 30
-5.0
 11
-66.35814171994696
 21
78.40018759177161
 31
-5.0
  0
LINE
  5
C1
330
17
100
AcDbEntity
  8
0
100
AcDbLine
 10
-55.84913673980631
 20
85.83140840110686
 30
0.0
 11
-55.84913673980631
 21
85.83140840110686
 31
-5.0
  0
LINE
  5
C2
330
17
100
AcDbEntity
  8
0
100
AcDbLine
 10
-55.84913673980631
 20
85.83140840110686
 30
0.0
 11
-66.35814171994696
 21
78.40018759177163
 31
0.0
  0
LINE
  5
C3
330
17
100
AcDbEntity
  8
0
100
AcDbLine
 10
-55.84913673980631
 20
85.83140840110686
 30
-5.0
 11
-66.35814171994696
 21
78.40018759177163
 31
-5.0
  0
LINE
  5
C4
330
17
100
AcDbEntity
  8
0
100
AcDbLine
 10
-22.437813860646347
 20
85.83140840110686
 30
0.0
 11
-22.437813860646347
 21
85.83140840110686
 31
-5.0
  0
LINE
  5
C5
330
17
100
AcDbEntity
  8
0
100
AcDbLine
 10
-55.84913673980631
 20
85.83140840110683
 30
0.0
 11
-22.437813860646344
 21
85.83140840110683
 31
0.0
  0
LINE
  5
C6
330
17
100
AcDbEntity
  8
0
100
AcDbLine
 10
-55.84913673980631
 20
85.83140840110683
 30
-5.0
 11
-22.437813860646344
 21
85.83140840110683
 31
-5.0
  0
LINE
  5
C7
330
17
100
AcDbEntity
  8
0
100
AcDbLine
 10
-20.924952739577503
 20
88.65140840110685
 30
0.0
 11
-20.924952739577503
 21
88.65140840110685
 31
-5.0
  0
LINE
  5
C8
330
17
100
AcDbEntity
  8
0
100
AcDbLine
 10
-22.437813860646354
 20
85.83140840110687
 30
0.0
 11
-20.924952739577513
 21
88.65140840110685
 31
0.0
  0
LINE
  5
C9
330
17
100
AcDbEntity
  8
0
100
AcDbLine
 10
-22.437813860646354
 20
85.83140840110687
 30
-5.0
 11
-20.924952739577513
 21
88.65140840110685
 31
-5.0
  0
LINE
  5
CA
330
17
100
AcDbEntity
  8
0
100
AcDbLine
 10
-4.574299383246492
 20
88.65140840110685
 30
0.0
 11
-4.574299383246492
 21
88.65140840110685
 31
-5.0
  0
LINE
  5
CB
330
17
100
AcDbEntity
  8
0
100
AcDbLine
 10
-20.924952739577503
 20
88.65140840110685
 30
0.0
 11
-4.574299383246492
 21
88.65140840110685
 31
0.0
  0
LINE
  5
CC
330
17
100
AcDbEntity
  8
0
100
AcDbLine
 10
-20.924952739577503
 20
88.65140840110685
 30
-5.0
 11
-4.574299383246492
 21
88.65140840110685
 31
-5.0
  0
LINE
  5
CD
330
17
100
AcDbEntity
  8
0
100
AcDbLine
 10
-0.8326374972465649
 20
85.83140840110686
 30
0.0
 11
-0.8326374972465649
 21
85.83140840110686
 31
-5.0
  0
LINE
  5
CE
330
17
100
AcDbEntity
  8
0
100
AcDbLine
 10
-0.8326374972465729
 20
85.83140840110686
 30
0.0
 11
-4.5742993832464975
 21
88.65140840110685
 31
0.0
  0
LINE
  5
CF
330
17
100
AcDbEntity
  8
0
100
AcDbLine
 10
-0.8326374972465729
 20
85.83140840110686
 30
-5.0
 11
-4.5742993832464975
 21
88.65140840110685
 31
-5.0
  0
LINE
  5
D0
330
17
100
AcDbEntity
  8
0
100
AcDbLine
 10
3.7295835719739436
 20
85.83140840110684
 30
-1.6566609195578508e-16
 11
3.7295835719739436
 21
85.83140840110684
 31
-5.0
  0
LINE
  5
D1
330
17
100
AcDbEntity
  8
0
100
AcDbLine
 10
-0.832637497246566
 20
85.83140840110684
 30
0.0
 11
3.7295835719739436
 21
85.83140840110684
 31
0.0
  0
LINE
  5
D2
330
17
100
AcDbEntity
  8
0
100
AcDbLine
 10
-0.832637497246566
 20
85.83140840110684
 30
-5.0
 11
3.7295835719739436
 21
85.83140840110684
 31
-5.0
  0
LINE
  5
D3
330
17
100
AcDbEntity
  8
0
100
AcDbLine
 10
9.378769588400374
 20
85.83140840110684
 30
6.036837696399289e-16
 11
9.378769588400374
 21
85.83140840110684
 31
-4.999999999999999
  0
ARC
  5
D4
330
17
100
AcDbEntity
  8
0
100
AcDbCircle
 10
6.554176580187157
 20
82.64942577485036
 30
0.0
 40
4.254801886792453
100
AcDbArc
 50
48.405068869759326
 51
131.59493113024064
  0
ARC
  5
D5
330
17
100
AcDbEntity
  8
0
100
AcDbCircle
 10
6.554176580187157
 20
82.64942577485036
 30
-5.0
 40
4.254801886792453
100
AcDbArc
 50
48.405068869759326
 51
131.59493113024064
  0
LINE
  5
D6
330
17
100
AcDbEntity
  8
0
100
AcDbLine
 10
15.781287699337728
 20
85.83140840110686
 30
0.0
 11
15.781287699337728
 21
85.83140840110686
 31
-5.0
  0
LINE
  5
D7
330
17
100
AcDbEntity
  8
0
100
AcDbLine
 10
9.378769588400374
 20
85.83140840110684
 30
0.0
 11
15.78128769933773
 21
85.83140840110684
 31
0.0
  0
LINE
  5
D8
330
17
100
AcDbEntity
  8
0
100
AcDbLine
 10
9.378769588400374
 20
85.83140840110684
 30
-5.0
 11
15.78128769933773
 21
85.83140840110684
 31
-5.0
  0
LINE
  5
D9
330
17
100
AcDbEntity
  8
0
100
AcDbLine
 10
19.855347066949868
 20
73.83140840110686
 30
0.0
 11
19.855347066949868
 21
73.83140840110686
 31
-5.0
  0
LINE
  5
DA
330
17
100
AcDbEntity
  8
0
100
AcDbLine
 10
19.855347066949868
 20
73.83140840110686
 30
-8.881784197001252e-16
 11
15.781287699337724
 21
85.83140840110687
 31
-8.881784197001252e-16
  0
LINE
  5
DB
330
17
100
AcDbEntity
  8
0
100
AcDbLine
 10
19.855347066949868
 20
73.83140840110686
 30
-5.000000000000001
 11
15.781287699337724
 21
85.83140840110687
 31
-5.000000000000001
  0
LINE
  5
DC
330
17
100
AcDbEntity
  8
0
100
AcDbLine
 10
56.72456042643166
 20
73.83140840110686
 30
0.0
 11
56.72456042643166
 21
73.83140840110686
 31
-5.0
  0
LINE
  5
DD
330
17
100
AcDbEntity
  8
0
100
AcDbLine
 10
19.855347066949868
 20
73.83140840110686
 30
0.0
 11
56.72456042643166
 21
73.83140840110686
 31
0.0
  0
LINE
  5
DE
330
17
100
AcDbEntity
  8
0
100
AcDbLine
 10
19.855347066949868
 20
73.83140840110686
 30
-5.0
 11
56.72456042643166
 21
73.83140840110686
 31
-5.0
  0
LINE
  5
DF
330
17
100
AcDbEntity
  8
0
100
AcDbLine
 10
65.54131271828959
 20
66.40678227317498
 30
0.0
 11
65.54131271828959
 21
66.40678227317498
 31
-5.0
  0
LINE
  5
E0
330
17
100
AcDbEntity
  8
0
100
AcDbLine
 10
56.72456042643166
 20
73.83140840110686
 30
0.0
 11
65.54131271828959
 21
66.40678227317498
 31
0.0
  0
LINE
  5
E1
330
17
100
AcDbEntity
  8
0
100
AcDbLine
 10
56.72456042643166
 20
73.83140840110686
 30
-5.0
 11
65.54131271828959
 21
66.40678227317498
 31
-5.0
  0
LINE
  5
E2
330
17
100
AcDbEntity
  8
0
100
AcDbLine
 10
64.48130554705449
 20
54.24453756837228
 30
0.0
 11
64.48130554705449
 21
54.24453756837228
 31
-5.0
  0
LINE
  5
E3
330
17
100
AcDbEntity
  8
0
100
AcDbLine
 10
64.48130554705494
 20
54.24453756837224
 30
-8.881784197001252e-16
 11
65.5413127182896
 21
66.40678227317498
 31
-8.881784197001252e-16
  0
LINE
  5
E4
330
17
100
AcDbEntity
  8
0
100
AcDbLine
 10
64.48130554705494
 20
54.24453756837224
 30
-5.000000000000001
 11
65.5413127182896
 21
66.40678227317498
 31
-5.000000000000001
  0
LINE
  5
E5
330
17
100
AcDbEntity
  8
0
100
AcDbLine
 10
63.96024413149525
 20
46.45317711893396
 30
0.0
 11
63.96024413149525
 21
46.45317711893396
 31
-5.0
  0
LINE
  5
E6
330
17
100
AcDbEntity
  8
0
100
AcDbLine
 10
63.960244131495244
 20
46.45317711893396
 30
0.0
 11
64.48130554705449
 21
54.24453756837229
 31
0.0
  0
LINE
  5
E7
330
17
100
AcDbEntity
  8
0
100
AcDbLine
 10
63.960244131495244
 20
46.45317711893396
 30
-5.0
 11
64.48130554705449
 21
54.24453756837229
 31
-5.0
  0
LINE
  5
E8
330
17
100
AcDbEntity
  8
0
100
AcDbLine
 10
63.27689996204885
 20
32.87301602688796
 30
1.1102230246251565e-16
 11
63.960244131495244
 21
46.453177118933965
 31
1.1102230246251565e-16
  0
LINE
  5
E9
330
17
100
AcDbEntity
  8
0
100
AcDbLine
 10
63.27689996204885
 20
32.87301602688796
 30
-5.0
 11
63.960244131495244
 21
46.453177118933965
 31
-5.0
  0
LINE
  5
EA
330
17
100
AcDbEntity
  8
0
100
AcDbLine
 10
-16.93502455076737
 20
-67.17226952889273
 30
0.0
 11
-16.93502455076737
 21
-67.17226952889273
 31
-5.0
  0
CIRCLE
  5
EB
330
17
100
AcDbEntity
  8
0
100
AcDbCircle
 10
-18.63502455076737
 20
-67.17226952889273
 30
0.0
 40
1.7
  0
CIRCLE
  5
EC
330
17
100
AcDbEntity
  8
0
100
AcDbCircle
 10
-18.63502455076737
 20
-67.17226952889273
 30
-5.0
 40
1.7
  0
LINE
  5
ED
330
17
100
AcDbEntity
  8
0
100
AcDbLine
 10
-88.41646463655286
 20
-22.564860200955415
 30
0.0
 11
-88.41646463655286
 21
-22.564860200955415
 31
-5.0
  0
CIRCLE
  5
EE
330
17
100
AcDbEntity
  8
0
100
AcDbCircle
 10
-90.11646463655286
 20
-22.564860200955415
 30
0.0
 40
1.7
  0
CIRCLE
  5
EF
330
17
100
AcDbEntity
  8
0
100
AcDbCircle
 10
-90.11646463655286
 20
-22.564860200955415
 30
-5.0
 40
1.7
  0
LINE
  5
F0
330
17
100
AcDbEntity
  8
0
100
AcDbLine
 10
-77.1340518213266
 20
61.64835451434236
 30
0.0
 11
-77.1340518213266
 21
61.64835451434236
 31
-5.0
  0
CIRCLE
  5
F1
330
17
100
AcDbEntity
  8
0
100
AcDbCircle
 10
-78.8340518213266
 20
61.64835451434236
 30
0.0
 40
1.7
  0
CIRCLE
  5
F2
330
17
100
AcDbEntity
  8
0
100
AcDbCircle
 10
-78.8340518213266
 20
61.64835451434236
 30
-5.0
 40
1.7
  0
LINE
  5
F3
330
17
100
AcDbEntity
  8
0
100
AcDbLine
 10
60.806956650319066
 20
39.09195930714085
 30
0.0
 11
60.806956650319066
 21
39.09195930714085
 31
-5.0
  0
CIRCLE
  5
F4
330
17
100
AcDbEntity
  8
0
100
AcDbCircle
 10
59.10695665031906
 20
39.09195930714085
 30
0.0
 40
1.7
  0
CIRCLE
  5
F5
330
17
100
AcDbEntity
  8
0
100
AcDbCircle
 10
59.10695665031906
 20
39.09195930714085
 30
-5.0
 40
1.7
  0
LINE
  5
F6
330
17
100
AcDbEntity
  8
0
100
AcDbLine
 10
8.254176580187156
 20
82.64942577485036
 30
0.0
 11
8.254176580187156
 21
82.64942577485036
 31
-5.0
  0
CIRCLE
  5
F7
330
17
100
AcDbEntity
  8
0
100
AcDbCircle
 10
6.554176580187157
 20
82.64942577485036
 30
0.0
 40
1.7
  0
CIRCLE
  5
F8
330
17
100
AcDbEntity
  8
0
100
AcDbCircle
 10
6.554176580187157
 20
82.64942577485036
 30
-5.0
 40
1.7
  0
ENDSEC
  0
SECTION
  2
OBJECTS
  0
DICTIONARY
  5
A
330
0
100
AcDbDictionary
281
1
  3
ACAD_COLOR
350
B
  3
ACAD_GROUP
350
C
  3
ACAD_LAYOUT
350
D
  3
ACAD_MATERIAL
350
E
  3
ACAD_MLEADERSTYLE
350
F
  3
ACAD_MLINESTYLE
350
10
  3
ACAD_PLOTSETTINGS
350
11
  3
ACAD_PLOTSTYLENAME
350
12
  3
ACAD_SCALELIST
350
14
  3
ACAD_TABLESTYLE
350
15
  3
ACAD_VISUALSTYLE
350
16
  0
DICTIONARY
  5
B
330
A
100
AcDbDictionary
281
1
  0
DICTIONARY
  5
C
330
A
100
AcDbDictionary
281
1
  0
DICTIONARY
  5
D
330
A
100
AcDbDictionary
281
1
  3
Model
350
1A
  3
Layout1
350
1E
  0
DICTIONARY
  5
E
330
A
100
AcDbDictionary
281
1
  3
ByBlock
350
1F
  3
ByLayer
350
20
  3
Global
350
21
  0
DICTIONARY
  5
F
330
A
100
AcDbDictionary
281
1
  3
Standard
350
2C
  0
DICTIONARY
  5
10
330
A
100
AcDbDictionary
281
1
  3
Standard
350
22
  0
DICTIONARY
  5
11
330
A
100
AcDbDictionary
281
1
  0
ACDBDICTIONARYWDFLT
  5
12
330
A
100
AcDbDictionary
281
1
  3
Normal
350
13
100
AcDbDictionaryWithDefault
340
13
  0
ACDBPLACEHOLDER
  5
13
330
12
  0
DICTIONARY
  5
14
330
A
100
AcDbDictionary
281
1
  0
DICTIONARY
  5
15
330
A
100
AcDbDictionary
281
1
  0
DICTIONARY
  5
16
330
A
100
AcDbDictionary
281
1
  0
LAYOUT
  5
1A
330
D
100
AcDbPlotSettings
  1

  2
Adobe PDF
  4
A4
  6

 40
3.175
 41
3.175
 42
3.175
 43
3.175
 44
209.91
 45
297.03
 46
0.0
 47
0.0
 48
0.0
 49
0.0
140
0.0
141
0.0
142
1.0
143
1.0
 70
1024
 72
0
 73
1
 74
5
  7

 75
16
 76
0
 77
2
 78
300
147
1.0
148
0.0
149
0.0
100
AcDbLayout
  1
Model
 70
1
 71
0
 10
-3.175
 20
-3.175
 11
293.857
 21
206.735
 12
0.0
 22
0.0
 32
0.0
 14
29.068
 24
20.356
 34
0.0
 15
261.614
 25
183.204
 35
0.0
146
0.0
 13
0.0
 23
0.0
 33
0.0
 16
1.0
 26
0.0
 36
0.0
 17
0.0
 27
1.0
 37
0.0
 76
1
330
17
  0
LAYOUT
  5
1E
330
D
100
AcDbPlotSettings
  1

  2
Adobe PDF
  4
A4
  6

 40
3.175
 41
3.175
 42
3.175
 43
3.175
 44
209.91
 45
297.03
 46
0.0
 47
0.0
 48
0.0
 49
0.0
140
0.0
141
0.0
142
1.0
143
1.0
 70
0
 72
0
 73
1
 74
5
  7

 75
16
 76
0
 77
2
 78
300
147
1.0
148
0.0
149
0.0
100
AcDbLayout
  1
Layout1
 70
1
 71
1
 10
-3.175
 20
-3.175
 11
293.857
 21
206.735
 12
0.0
 22
0.0
 32
0.0
 14
29.068
 24
20.356
 34
0.0
 15
261.614
 25
183.204
 35
0.0
146
0.0
 13
0.0
 23
0.0
 33
0.0
 16
1.0
 26
0.0
 36
0.0
 17
0.0
 27
1.0
 37
0.0
 76
1
330
1B
  0
MATERIAL
  5
1F
102
{ACAD_REACTORS
330
E
102
}
330
E
100
AcDbMaterial
  1
ByBlock
  2

 70
0
 40
1.0
 71
1
 41
1.0
 91
-1023410177
 42
1.0
 72
1
  3

 73
1
 74
1
 75
1
 44
0.5
 73
0
 45
1.0
 46
1.0
 77
1
  4

 78
1
 79
1
170
1
 48
1.0
171
1
  6

172
1
173
1
174
1
140
1.0
141
1.0
175
1
  7

176
1
177
1
178
1
143
1.0
179
1
  8

270
1
271
1
272
1
145
1.0
146
1.0
273
1
  9

274
1
275
1
276
1
 42
1.0
 72
1
  3

 73
1
 74
1
 75
1
 94
63
  0
MATERIAL
  5
20
102
{ACAD_REACTORS
330
E
102
}
330
E
100
AcDbMaterial
  1
ByLayer
  2

 70
0
 40
1.0
 71
1
 41
1.0
 91
-1023410177
 42
1.0
 72
1
  3

 73
1
 74
1
 75
1
 44
0.5
 73
0
 45
1.0
 46
1.0
 77
1
  4

 78
1
 79
1
170
1
 48
1.0
171
1
  6

172
1
173
1
174
1
140
1.0
141
1.0
175
1
  7

176
1
177
1
178
1
143
1.0
179
1
  8

270
1
271
1
272
1
145
1.0
146
1.0
273
1
  9

274
1
275
1
276
1
 42
1.0
 72
1
  3

 73
1
 74
1
 75
1
 94
63
  0
MATERIAL
  5
21
102
{ACAD_REACTORS
330
E
102
}
330
E
100
AcDbMaterial
  1
Global
  2

 70
0
 40
1.0
 71
1
 41
1.0
 91
-1023410177
 42
1.0
 72
1
  3

 73
1
 74
1
 75
1
 44
0.5
 73
0
 45
1.0
 46
1.0
 77
1
  4

 78
1
 79
1
170
1
 48
1.0
171
1
  6

172
1
173
1
174
1
140
1.0
141
1.0
175
1
  7

176
1
177
1
178
1
143
1.0
179
1
  8

270
1
271
1
272
1
145
1.0
146
1.0
273
1
  9

274
1
275
1
276
1
 42
1.0
 72
1
  3

 73
1
 74
1
 75
1
 94
63
  0
MLINESTYLE
  5
22
102
{ACAD_REACTORS
330
10
102
}
330
10
100
AcDbMlineStyle
  2
Standard
 70
0
  3

 62
256
 51
90.0
 52
90.0
 71
2
 49
0.5
 62
256
  6
BYLAYER
 49
-0.5
 62
256
  6
BYLAYER
  0
MLEADERSTYLE
  5
2C
102
{ACAD_REACTORS
330
F
102
}
330
F
100
AcDbMLeaderStyle
179
2
170
2
171
1
172
0
 90
2
 40
0.0
 41
0.0
173
1
 91
-1056964608
 92
-2
290
1
 42
2.0
291
1
 43
8.0
  3
Standard
 44
4.0
300

342
29
174
1
175
1
176
0
178
1
 93
-1056964608
 45
4.0
292
0
297
0
 46
4.0
 94
-1056964608
 47
1.0
 49
0.0
140
1.0
294
1
141
0.0
177
0
142
1.0
295
0
296
0
143
3.75
271
0
272
9
272
9
  0
ENDSEC
  0
EOF
